Cifra Club

Mais de Ti

Kleber Conradesqui

Cifra: Principal (violão e guitarra)
tom: G
[Intro] C  Em  G  D

E|-7-5---5~~---7-5---5~~---7-5-------7-5---------|
B|-----7-----------7-----------8-7~------8-7--8--|
G|-----------------------------------------------|
D|-----------------------------------------------|
A|-----------------------------------------------|
E|-----------------------------------------------|

       C
Sim eu vou até as águas mais profundas
      G                     C
És a fonte que sacia o meu ser
       Em                G
És o Cristo, o Messias, o Senhor da minha vida
C
Eu anseio mais e mais te conhecer


C                     D  Em
Mais e mais e mais e mais de Ti
          D/F#  G
Eu quero mais de Ti
              D
Eu quero mais de Ti

C                     D  Em
Mais e mais e mais e mais de Ti
          D/F#  G
Eu quero mais de Ti
              D
Eu quero mais de Ti

[Solo] C  Em  G  D

E|-7-5---5~~---7-5---5~~--7-5--------------------|
B|-----7-----------7----------8-7--8-------------|
G|-----------------------------------------------|
D|-----------------------------------------------|
A|-----------------------------------------------|
E|-----------------------------------------------|

       C
Sim eu vou até as águas mais profundas
      G                     C
És a fonte que sacia o meu ser
       Em                G
És o Cristo, o Messias, o Senhor da minha vida
C
Eu anseio mais e mais te conhecer


C                     D  Em
Mais e mais e mais e mais de Ti
          D/F#  G
Eu quero mais de Ti
              D
Eu quero mais de Ti

C                     D  Em
Mais e mais e mais e mais de Ti
          D/F#  G
Eu quero mais de Ti
              D
Eu quero mais de Ti

[Ponte]

          C
Tem muito mais
          Em
Tem muito mais
       G
Sim eu posso me entregar
       D/F#
Sim eu posso me lançar

          C
Tem muito mais
          Em
Tem muito mais
       G
Sim eu posso me entregar
       D
Sim eu posso me lançar

[Solo] C  Em  G  D

E|-7-5---5~~---7-5---5~~---7-5-------7-5---------|
B|-----7-----------7-----------8-7~------8-7--8--|
G|-----------------------------------------------|
D|-----------------------------------------------|
A|-----------------------------------------------|
E|-----------------------------------------------|

C                     D  Em
Mais e mais e mais e mais de Ti
          D/F#  G
Eu quero mais de Ti
              D
Eu quero mais de Ti

C                     D  Em
Mais e mais e mais e mais de Ti
          D/F#  G
Eu quero mais de Ti
              D
Eu quero mais de Ti

[Ponte]

          C
Tem muito mais
          Em
Tem muito mais
       G
Sim eu posso me entregar
       D/F#
Sim eu posso me lançar

          C
Tem muito mais
          Em
Tem muito mais
       G
Sim eu posso me entregar
       D
Sim eu posso me lançar
Composição de Kleber Conradesqui Junior
Colaboração e revisão:
  • Leticia Oliveira
3 exibições
    • ½ Tom
    • A
    • Bb
    • B
    • C
    • Db
    • D
    • Eb
    • E
    • F
    • F#
    • G
    • Ab
  • Adicionar à lista

    0 comentários

    Ver todos os comentários

    Conseguiu tocar?

    0 Tocaram 0 Ainda não

    Grave um vídeo tocando Mais de Ti e nos envie!

    00:00 / 00:00
    Outros vídeos desta música
    Repetir Qualidade Automático
    Outros vídeos desta música
    00:00 / 00:00
    Automático

    Cifra Club Pro

    Aproveite o Cifra Club com benefícios exclusivos e sem anúncios
    Cifra Club Pro
    Aproveite o Cifra Club com benefícios exclusivos e sem anúncios
    OK