Notificações Amigos pendentes

      Kleber Lucas

      Meu Alvo

      35.762 exibições
      Tom: A#
      (intro)
      
      
      E|-----------------------------------------|
      B|---4-4-3-------4-4-3-------4-4-3---3-----|
      G|----------5-3---------5-3---------5-3----|
      D|-----------------------------------------|
      A|-----------------------------------------|
      E|-----------------------------------------|
      
      
      E|-----------------------------------------------------------|
      B|-16161616-15--------16161616-15--------16161616-15---15----|
      G|-------------17-15--------------17-15--------------17--15--|
      D|-----------------------------------------------------------|
      A|-----------------------------------------------------------|
      E|-----------------------------------------------------------|
      
      
      E|-------------------------------------------------|
      B|--444-444-333------------444-444-333----------3--|
      G|--------------555-33-535--------------555-33-5-3-|    (2x)
      D|-------------------------------------------------|
      A|-------------------------------------------------|
      E|-------------------------------------------------|
      
      
      Estou subindo pra um lugar mais alto
      eu ja queimei as pontes com o passado
       e os meus olhos, vejo um futuro
      
      
      E|--------------------------------|
      B|-----------------7-77-77-77-77-7|
      G|-7-77-77-77-77-7----------------|
      D|--------------------------------|
      A|--------------------------------|
      E|--------------------------------|
      
      
      tudo novo se fez, tudo novo se faz
               F              Gm
      e dessa estrada eu não me desvio nunca mais
               F/A                   D#
      estou firme eu não me desvio nunca mais
      
            A#
      vou avançar eu vou vencer,
        F
      ninguem vai me deter
         Gm
      meu alvo é Cristo
          D#
      meu alvo é Cristo
      
      
      E|-------------------------------------------------|
      B|--444-444-333------------444-444-333----------3--|
      G|--------------555-33-535--------------555-33-5-3-|    (2x)
      D|-------------------------------------------------|
      A|-------------------------------------------------|
      E|-------------------------------------------------|
      
      
      Estou subindo pra um lugar mais alto
      eu ja queimei as pontes com o passado
       e os meus olhos, vejo um futuro
      
      
      E|--------------------------------|
      B|-----------------7-77-77-77-77-7|
      G|-7-77-77-77-77-7----------------|
      D|--------------------------------|
      A|--------------------------------|
      E|--------------------------------|
      
      
      tudo novo se fez, tudo novo se faz
               F              Gm
      e dessa estrada eu não me desvio nunca mais
               F/A                   D#
      estou firme eu não me desvio nunca mais
      
            A#
      vou avançar eu vou vencer,
       F
      ninguem vai me deter
         Gm                            (2x)
      meu alvo é Cristo
          D#
      meu alvo é Cristo
      
      
      E|-----------------------------------------|
      B|---4-4-3-------4-4-3-------4-4-3---3-----|
      G|----------5-3---------5-3---------5-3----|
      D|-----------------------------------------|
      A|-----------------------------------------|
      E|-----------------------------------------|
      
      
      E|-----------------------------------------------------------|
      B|-16161616-15--------16161616-15--------16161616-15---15----|
      G|-------------17-15--------------17-15--------------17-15---|
      D|-----------------------------------------------------------|
      A|-----------------------------------------------------------|
      E|-----------------------------------------------------------|
      
      
            A#  F              Fm7
      vou avançar eu vou vencer,
                    G#
      ninguem vai me deter
         D#            Cm7            (2x)
      meu alvo é Cristo
          D#           F7
      meu alvo é Cristo
      
      
      E|-------------------------------------------------|
      B|--444-444-333------------444-444-333----------3--|
      G|--------------555-33-535--------------555-33-5-3-|
      D|-------------------------------------------------|
      A|-------------------------------------------------|
      E|-------------------------------------------------|
      
      
      ( Eb )
        Composição: Kleber LucasColaboração e revisão:
        • Warllife
        • matheus
        • LEANDRO
        • Tiago

        Comentários 3

        140 .
        • nanoesouza nanoesouza: Em 13/07/2011 11:35

          Facil pq meu alvo eh cristo!²

        • cr4zy cr4zy: Em 08/04/2011 21:57

          Facil pq meu alvo eh cristo!

          • Warllife Warllife : Em 14/06/2013 10:53

            o nosso alvo é Cristoo!!!!

        140 cancelar

        conseguiu tocar?

        • •••

        covers

        Grave um vídeo tocando Meu Alvo e mande pra gente!

        Ex.: http://www.youtube.com/watch?v=0IvSvIwGdwk
        ver covers de outras músicas »
        0:00 / 0:00

        Capítulos

          1 versão de partiturasformatodownloadscontribuição
          play/pausefechar subir/descer velocidade
          6ª corda E5ª corda A4ª corda D3ª corda G2ª corda B1ª corda E
            acordes
            publicidade
            fechar
            ok