Enviar cifraEntrar

O melhor esta por vir

Kleber Lucas

Cifra: Principal
exibições 150.729
Tom: G
A intro (A) desta musica e feita por efeitos de teclado...
produzi este riff p/guitarra,como sugestao de inicio (acompanhamento)da intro B.


introA:(distorçao leve)


E|----2xxxx3xxx3xxx3xxx3xxx3xx2xxx------------------
B|--------------------------------3xxxx3xxxx3xx3xxx-
G|--------------------------------------------------
D|--------------------------------------------------
A|--------------------------------------------------
E|--------------------------------------------------


E|--------------------------------------------------
B|--------------------------------------------------
G|--------------------------------------------------
D|---4xxxx5xxx5xx5xxx5xxxxx5xxx4--------------------
A|------------------------------5xx5xxxx5xxx5xxx----


depois isto...

intro B:(distorçao pesada)

D  Em... D Bm...
D  Em... D Bm  C....

E este riff acompanha o começo...alegrai-vos..

    G          D             Em          C
G|-------------------------------------------------7
D|-----4--5--4-----4--5-4--------4--5--4-----4--5-4-
A|-------------5-5-----------5-5---------5--5-------
E|--3-3-------------------00------------------------


G   D          Em         
Alegrai-vos filhos de siao
  C                   G
regozijai-vos no senhor 
G       D         Em            C
por que ele vos dara em justa medida
  G      D    Em   C
a chu...va,a chu..va

G         D              Em       C
As eiras se encherao de trigo oh oh!
G       D        Em           C            G
e os lagares,trasbordarao de oleo e vinho!

solo: 

G|---------/7~~-------------------------------------
D|---------------5--4--5/------------/14~~---10-12~~
A|--------------------------------------------------
E|----3~~-------------------------------------------



G       D               Em          C
Restituirei os anos que foram comsumidos
G             D     Em         C
e lhes mostrarei,a minha salvaçao
   G           D            Em                 C
e sabereis,que o melhor de Deus ainda esta por vir!!

Refrao:

G                        D
O melhor de Deus ainda esta por vir
Em                       C
o melhor de Deus ainda esta por vir
G                        C
o melhor de Deus ainda esta por vir
     Em      C
o melhor de Deus!

(faz-se a intro(B)p/recomeçar ou para voltar ao refrao)
  • 1
  • 2
  • 3
  • 4
  • 5
  • 6
  • 7
  • 8
  • 9
  • 10
  • 11
  • 12
    Acordes para:
      Colaboração e revisão:
      • Danilo athos

      0 comentários

        mostrar mais comentários

        Conseguiu tocar?

        3tocaram0ainda não

        Grave um vídeo tocando O melhor esta por vir e mande pra gente!

        00:00 / 00:00
        outros vídeos desta música
        repetirqualidadeautomática
        • automática
        Outro vídeos desta música
          00:00 / 00:00
          automática
          • automática
          Acordes para:violão e guitarra
          dificuldadeexibiçõescontribuições
          fecharplay/pause subir/descer velocidade
            acordes
            fechar
            OK
            Feedback