Cifra Club

Aprenda

Rio de Vida

Kleber Lucas

Cifra: Versão 2 (violão e guitarra)
tom: C
                                                         --------2x--------
                                                               |         |        | essa parte 
SOLO INTRO:e|------------------------------------------------ |-------------------- segura mais 
           b|-8-8-x-x-8-8-x-x-8-8-x-x-7-7-x-x-7-7-x-x-7-7-x-x |-10-10-x-x-10-10-x-x tempo,fica como 
           g|-7-7-x-x-7-7-x-x-7-7-x-x-7-7-x-x-7-7-x-x-7-7-x-x |--9--9-x-x--9--9-x-x se repetisse 2x
           d|-5-5-x-x-5-5-x-x-5-5-x-x-5-5-x-x-5-5-x-x-5-5-x-x |--7--7-x-x--7--7-x-x
           a|------------------------------------------------ |--------------------
           E|------------------------------------------------ |--------------------
              |       isso tudo repete 2x                                            |
               --------------------------------------------------------------------

D|-0--2--3--2--0----------------------------|
A|---------------3-2-3-5--------------------|
E|-----------------------3~-----------------|

Agora é só parar pra pegar, valeu galera!!!

 G             D/F#        C          D 
Deus eu ouço a tua voz chamando o meu nome 
 G             D/F#            C           D 
Para entrar em comunhão, pois tenho sede e fome 
          Em    Bm    C                  G 
Da Tua presen - ça é o que mais quero ter 
          Em    Bm   C                 G 
Da tua presen - ça é o meu maior prazer 
          Am  C/D         
Te quero Deus,    te quero Deus 

G                       D/F# 
Eu não posso deixar de te amar 
                          Em
Eu não posso deixar de adorar 
                           C 
Eu não posso deixar de desejar 
       C/D     G 
Tua presença 
                       D/F# 
O Pão Vivo de desce do céu  
                          Em
A palavra mais doce que o mel 
                     C     D           G 
É o Teu Rio de Vida, que me sustenta 

SOLO : 

D|-0--2--3--2--0----------------------------|
A|---------------3-2-3-5--------------------|
E|-----------------------3~-----------------|
 
Em         Bm     C          G      G - D/F# - Em 
Eu te louvarei de todo o coração  
                       Am    D
Mais do que o ouro e a prata 
          C         G             C          G 
A tua presença me basta, a tua presença me basta 
          C       C/D 
A tua presença me basta 
          G           { F C/E G C G/B Am G } 
Te quero Deus

SOLO :

D|-0--2--3--2--0----------------------------|
A|---------------3-2-3-5--------------------|
E|-----------------------3~-----------------|                kayo the best of guitarr

Composição de David Quinlan / Kleber Lucas
Colaboração e revisão:
  • Kayo Santos
7.725 exibições
    • ½ Tom
    • A
    • Bb
    • B
    • C
    • Db
    • D
    • Eb
    • E
    • F
    • F#
    • G
    • Ab
  • Adicionar à lista

    0 comentários

    Ver todos os comentários
    00:00 / 00:00
    Outros vídeos desta música
    Repetir Qualidade Automático
    Outros vídeos desta música
    00:00 / 00:00
    Automático

    Cifra Club Pro

    Aproveite o Cifra Club com benefícios exclusivos e sem anúncios
    Cifra Club Pro
    Aproveite o Cifra Club com benefícios exclusivos e sem anúncios
    OK