Cifra Club

Se Eu Me Entregar

Kleo Dibah & Rafael

Cifra: Principal
exibições 451.908
Tom: D
 Ritmo: \//\/\\/ /\/\\/ \//\\/


 Intro: Bm  A  E  E4  E  G  Bm
E|--------------------------------------------------------------------------------------------------|
B|--------------------------------------------------------------------------------------------------|
G|-/11-11-11-11-9--11---7-7-7-9-7-6---9--9--9--9--7-9----9--9--9---9/11-9--7-4----4h7p4----4h7p4----|
D|-/12-12-12-12-11-12---7-7-7-7-7-7---11-11-11-11-9-11---11-11-11-11/12-11-9-5----------------------|
A|--------------------------------------------------------------------------------------------------|
E|--------------------------------------------------------------------------------------------------|


E|-------------------------------------------|
B|--------------------------------------7----|
G|-----7\6------------------------4/7-9------|
D|-7h9-----9p7--4/5--5\7--7\9------------9---|
A|-------------------------------------------|
E|-------------------------------------------|



Bm                                    A
Nao quero mais ficar pensando em você
                                 E
Eu tenho muito medo, medo de sofrer
                                        G
Você me olha de um jeito que eu passo mal

Bm                                  A
To viajando a horas em sua fotografia
                                   E
A noite ta passando amanhecendo o dia
                                        G
Por isso estou dizendo isso não vai rolar

D                                     A
To te lembrando tanto você nem imagina
                                              Em
Já comecei a te escrever em meus versos e rimas
                       G                   A
Por isso eu to caindo fora antes de apaixonar

D                                       A
Se eu me entregar eu vou chorar depois
                                             Em
Ha muito tempo eu não me apego a um novo amor
                         Bm
O envolvimento vem com o tempo
                A       G   A
E o tempo pode machucar

D                                       A
Se eu me entregar eu vou morrer de amor
                                         Em
Eu me imagino te perdendo amanhã ou depois
                       Bm                A
Sei muito bem o quanto dói um amor forte acabar
                   Bm
É melhor pra nós dois


 Solo: Bm  A  E  E4  E  G  Bm
E|------------------------------------------------------------------------------------------|
B|-------------------------------------------------------------7----------------------------|
G|-/11-11-11-11--9-11---7-7-7-9-7-6---9--9--9--9--7-9------7-9--9-7-------------------------|
D|-/12-12-12-12-11-12---7-7-7-7-7-7---11-11-11-11-9-11--7h9---------9---9h12p9--9h12p9------|
A|------------------------------------------------------------------------------------------|
E|------------------------------------------------------------------------------------------|


E|----------------------------------------------|
B|-----------------------12-12-12-10-------10---|
G|-7\6---------------12--------------12-11------|
D|-----9\7--4/5--9/0----------------------------|
A|----------------------------------------------|
E|----------------------------------------------|



D                                     A
To te lembrando tanto você nem imagina
                                              Em
Já comecei a te escrever em meus versos e rimas
                       G                   A
Por isso eu to caindo fora antes de apaixonar

D                                       A
Se eu me entregar eu vou chorar depois
                                             Em
Ha muito tempo eu não me apego a um novo amor
                         Bm
O envolvimento vem com o tempo
                A       G   A
E o tempo pode machucar

D                                       A
Se eu me entregar eu vou morrer de amor
                                         Em
Eu me imagino te perdendo amanhã ou depois
                       Bm                A
Sei muito bem o quanto dói um amor forte acabar

D                                       A
Se eu me entregar eu vou chorar depois
                                             Em
Ha muito tempo eu não me apego a um novo amor
                         Bm
O envolvimento vem com o tempo
                A       G   A
E o tempo pode machucar

D                                       A
Se eu me entregar eu vou morrer de amor
                                         Em
Eu me imagino te perdendo amanhã ou depois
                       Bm                A
Sei muito bem o quanto dói um amor forte acabar
                   Bm
É melhor pra nós dois
Acordes para:

    0 comentários

      mostrar mais comentários

      Conseguiu tocar?

      81tocaram1ainda não

      Grave um vídeo tocando Se Eu Me Entregar e mande pra gente!

      00:00 / 00:00
      outros vídeos desta música
      repetirqualidadeautomática
      Outro vídeos desta música
        00:00 / 00:00
        automática
        OK