Cifra Club

Bo-bomb World Intro

Koji Kondo

Cifra: Principal (violão e guitarra)
exibições 526
Tom: C
[--0-------0-------------------------------------------3-------3------3-1---1---]
[--1-------1------------------------1--3p1------------------------------3---3---]
[----------0-p-2-p-0--3-3p0h1-2p0h2-2------2-2-1-0--0--0-0---0-0--0--0----0-2---]
[--2-p0-h2------------2-2-----3-----3------3-3-3-2-4---2-2--4--2----4---3-------]
[---------------------3---------------------------------------------------------]
[-------------------------------------------------------------------------------]

[------3------------------------------------------------------------------------]
[------3------------------------------------------------------------------------]
[---0--0------------------------------------------------------------------------]
[------0------------------------------------------------------------------------]
[------2------------------------------------------------------------------------]
[------3------------------------------------------------------------------------]
( THEN JUST REPEAT IT OVER AND OVER)
Acordes para:

    0 comentários

      mostrar mais comentários

      Conseguiu tocar?

      0tocaram0ainda não

      Grave um vídeo tocando Bo-bomb World Intro e mande pra gente!

      00:00 / 00:00
      outros vídeos desta música
      repetirqualidadeAutomático
      Outro vídeos desta música
        00:00 / 00:00
        OK