Star By Star

The Kovenant

tom: Bb
Tabbed by:Derz
Email:*
This is a Fucking easy song!
so mail me!

Tuning:EADGBe

Intro and second guitar for riff1:x11
I call it Riff1a!

e|---------------------------------------------------------------------------|
B|-----------------3/4-------------------------------------------------------|
G|------5-7-8-7-5------------------------------------------------------------|
D|----5----------5-----------------------------------------------------------|
A|--3------------------------------------------------------------------------|
E|---------------------------------------------------------------------------|



Riff1:x4

e|---------------------------------------------------------------------------|
B|---------------------------------------------------------------------------|
G|---------------------------------------------------------------------------|
D|-5-5-5555555-----8888888---------------------------------------------------|
A|-3-3-3333333-----6666666-5-5-5555555-8-8-8888888---------------------------|
E|-3-3-3333333-6-6-6666666-3-3-3333333-6-6-6666666---------------------------|

Riff2:x2

e|--------------------------------|
B|-3----4-6-4-6-3-4-3-------------|
G|---5-----------3----------------|
D|-----5--------------------------|
A|--------------------------------|
E|--------------------------------|

Riff1:x4 with Riff1a:x11
Riff2:x2

Riff3:x4
e|---------------------------------------------------------------------------|
B|---------------------------------------------------------------------------|
G|---------------------------------------------------------------------------|
D|---------------------------------------------------------------------------|
A|--55555555555566666666666--55555555555566666666666-8-----------------------|
E|--33333333333344444444444--33333333333344444444444-6-----------------------|

Riff1:x4 with Riff1a:x11

End! THATS IT!



| p  pull-off
| ~  vibrato
| +  harmonic
| x  Mute note
=====================================================================
Página 1 / 1

Letras e título
Acordes e artista

resetar configurações
OK