Cifra Club

Silmät Sydämeeni

Kristiina Brask

Cifra: Principal (violão e guitarra)
tom: C
Intro 2x: Am  G  F  E7
E|----------------3-1------------------------|
B|----1-----3-3-------1---3-1-0--------------|
G|--2---2---0-------------------2------------|
D|-------------------------------------------|
A|-0-----------------------------------------|
E|----------3-----1-------0------------------|

Am  G    F    E7
Oo vielä hetki,
Am   G       F        E7
ilta tuoksuu talvelta taas.
Am   G    F   E7
Eteisessä ovi
Am     G       F    E7
uneni hämyssä lukitaan.

  F       C
Ei oo eka kerta,
    G      Am
kun tyynyni jää
F        C     E7
viereeni yksin viilenemään.

Refrão:
    Am
Moni katsoo,
  F
ei nää
       C       G
sisään silmistäni.
      Am      F          C      G
Sul on ainoat silmät mun sydämeeni.
F       C
Mietitkö vielä,
     G     E7        Am      F
miks kasvojani kyyneleet nuolevat,
    C        G
tulisit, odotan sua vielä.

Intro 2x: Am  G  F  E7
E|----------------3-1------------------------|
B|----1-----3-3-------1---3-1-0--------------|
G|--2---2---0-------------------2------------|
D|-------------------------------------------|
A|-0-----------------------------------------|
E|----------3-----1-------0------------------|

Am    G       F    E7
Istun pöydällä aikaa,
Am       G       F      E7
kuuntelen ikkunat natisee.
Am    G     F     E7
Niiden läpi tuulee,
Am     G           F      E7
asunto hiljalleen viilenee.

F         C        G      Am
Taikaa ei taaskaan yöhöni jää,
  F          C            E7
ei kynttilän liekki jaksa lämmittää.

Refrão:
    Am
Moni katsoo,
  F
ei nää
       C       G
sisään silmistäni.
      Am      F          C      G
Sul on ainoat silmät mun sydämeeni.
F       C
Mietitkö vielä,
     G     E7        Am      F
miks kasvojani kyyneleet nuolevat,
    C        G
tulisit, odotan sua vielä.

Intro 2x: Am  G  F  E7
E|----------------3-1------------------------|
B|----1-----3-3-------1---3-1-0--------------|
G|--2---2---0-------------------2------------|
D|-------------------------------------------|
A|-0-----------------------------------------|
E|----------3-----1-------0------------------|

Dm    Am       G
Askeleita oven takaa kuulen,
Dm    Am              Am  G
aamun mies vain jakaa lehden.

Refrão:
    Am        F
Eikä katso, ei nää
       C       G
sisään silmistäni.
      Am      F          C      G
Sul on ainoat silmät mun sydämeeni.
F        C
Mietitkö vielä,
     G      E7     Am         F
miks kasvojani kyyneleet nuolevat
   C           G
tulisit jo tai anna mun mennä.

Intro 4x: Am  G  F  E7
E|----------------3-1------------------------|
B|----1-----3-3-------1---3-1-0--------------|
G|--2---2---0-------------------2------------|
D|-------------------------------------------|
A|-0-----------------------------------------|
E|----------3-----1-------0------------------|

Final:
E|-------------------------------------------|
B|-----1-------------------------------------|
G|---2---2-----------------------------------|
D|-------------------------------------------|
A|-0-----------------------------------------|
E|-------------------------------------------|
00:00 / 00:00
Outros vídeos desta música
Repetir
Outros vídeos desta música
Compositor não encontrado.
Colaboração e revisão:
  • luana oliveira
87 exibições
    • ½ Tom
    • A
    • Bb
    • B
    • C
    • Db
    • D
    • Eb
    • E
    • F
    • F#
    • G
    • Ab
  • Adicionar à lista

    0 comentários

    Ver todos os comentários

    Conseguiu tocar?

    0 Tocaram 0 Ainda não

    Grave um vídeo tocando Silmät Sydämeeni e nos envie!

    Entre para oCifra Club PRO

    Tenha acesso a benefícios exclusivos no App e no Site

    • Chega de anúncios

    • Prioridade de compra em lançamentos

    • Mais recursos no app do Afinador

    • Atendimento Prioritário

    • Descontos nos produtos Cifra Club

    • Ajude a produzir mais conteúdo

    00:00 / 00:00

    Cifra Club Pro

    Aproveite o Cifra Club com benefícios exclusivos e sem anúncios
    Cifra Club Pro
    Aproveite o Cifra Club com benefícios exclusivos e sem anúncios
    OK