Sappy

Kurt Cobain

Composição de: Kurt Cobain
tom: D Afinação: E A D G B E
[Intro]
E|------------------|--------------------|------------------|------------------|
B|------------------|--------------------|------------------|------------------|
G|------4-----4---4-|--------------------|------------------|------------------|
D|----4-----4---4---|-----5----------2---|------4-----4---4-|-----5-------7----| x2
A|--2-----2---------|---5----------2-----|----4-----4---4---|---5-------7------|
E|------------------|-5------5-5/2-----2-| 2\4-----4---------|-5-----5/7-----7--|

[Verse 1]
E|------------------|--------------------|------------------|------------------|
B|------------------|--------------------|------------------|------------------|
G|------4-----4---4-|--------------------|------------------|------------------|
D|----4-----4---4---|-----5----------2---|------4-----4---4-|-----5-------7----| x4
A|--2-----2---------|---5----------2-----|----4-----4---4---|---5-------7------|
E|------------------|-5------5-5/2-----2-| 2\4-----4---------|-5-----5/7-----7--|

[Chorus 1]
E|------------------| |-------------------|-------------------|
B|------------------| |-------------------|-------------------|
G|------4-----4---4-| |-------------------|-------------------|
D|----4-----4---4---| |------5------5---5-|-----2-----2----2--|  x3
A|--2-----2---------| |----5------5----5--|---2-----2----2----|
E|------------------| |--5------5---------|-2-----2-----------|

E|-------------------|------------------|
B|-------------------|--(4)-------------|
G|-------------------|--(4)-------------|
D|------5-----5---5--|---4--------------|
A|----5-----5---5----|---4--------------|
E|--5-----5----------|---4--------------|

[Verse 2]
E|------------------|--------------------|------------------|------------------|
B|------------------|--------------------|------------------|------------------|
G|------4-----4---4-|--------------------|------------------|------------------|
D|----4-----4---4---|-----5----------2---|------4-----4---4-|-----5-------7----| x4
A|--2-----2---------|---5----------2-----|----4-----4---4---|---5-------7------|
E|------------------|-5------5-5/2-----2-| 2\4-----4---------|-5-----5/7-----7--|

[Chourus 2/Outro]
E|------------------| |-------------------|-------------------|
B|------------------| |-------------------|-------------------|
G|------4-----4---4-| |-------------------|-------------------|
D|----4-----4---4---| |------5------5---5-|-----2-----2----2--|  x4
A|--2-----2---------| |----5------5----5--|---2-----2----2----|
E|------------------| |--5------5---------|-2-----2-----------|

E|-------------------|------------------|
B|-------------------|--(4)-------------|
G|-------------------|--(4)-------------|
D|------5-----5---5--|---4--------------|
A|----5-----5---5----|---4--------------|
E|--5-----5----------|---4--------------|



************************************

| /  Slide

************************************

Note: sometimes he play 4 strings instead of three
EX:
E|--------| D|------|
B|--------| A|------|
G|------5-| F|------|
D|------5-| instead of  C|----5-|
A|----5---| G|--5---|
C|--5-----|              C|5-----|
Página 1 / 1

Letras e título
Acordes e artista

resetar configurações
OK