Cifra Club

Firestone

Kygo

Cifra: Principal
exibições 4.015
Tom: A
INTRO:


E|----------------------------------------------------|
B|---0--3--5----5--3--7--5-----0--3--5--7--5--3-3-----|
G|----------------------------------------------------|  (4x)
D|----------------------------------------------------|
A|----------------------------------------------------|
E|----------------------------------------------------|


Pré Refrão:


E|----------------------------------------------------|
B|-0--3--5-5~--0--3--5-5~---0--3--5-5~---0--3--5-5-3~-|
G|----------------------------------------------------|
D|----------------------------------------------------|
A|----------------------------------------------------|
E|----------------------------------------------------|
                                                         (2x)

E|--------------------------------------5--3--2--0--3~|
B|-0--3--5-5~--0--3--5-5~---0--3--5-5~----------------|
G|----------------------------------------------------|
D|----------------------------------------------------|
A|----------------------------------------------------|
E|----------------------------------------------------|


Refrão:


E|-------------0-2-0-0----5-3-2------------0-2-0-0----|
B|--3-0-0-3-0----------3--------3-0-0-3-0----------3~-|
G|----------------------------------------------------|
D|----------------------------------------------------|
A|----------------------------------------------------|
E|----------------------------------------------------|
Acordes para:
    Colaboração e revisão:
    • Paulo

    0 comentários

      mostrar mais comentários

      Conseguiu tocar?

      0tocaram0ainda não

      Grave um vídeo tocando Firestone e mande pra gente!

      00:00 / 00:00
      outros vídeos desta música
      repetirqualidadeautomática
      Outro vídeos desta música
        00:00 / 00:00
        automática
        OK