Cifra Club

Porquê a Morte Me Deseja Tanto? Pt.1

La Muerte

Cifra: Principal (violão e guitarra)
tom: C (forma dos acordes no tom de G) Capotraste na 5ª casa
[Intro]

   C9
E|-------x-----------x---x-|
B|-----5-x---------5-x-4-x-|
G|-----4-x-------4---x-4-x-|
D|---5---x-0---5-----x-5-x-|
A|-3-----x---4-------x---x-|
E|-------x-----------x---x-|

     Am
E|---------------------------|
B|-------1-x---------1-x-1-x-|
G|-------2-x-------2---x-2-x-|
D|-0---2---x-0---2-----x-2-x-|
A|---0-----x---0-------x---x-|
E|---------------------------|

     Em
E|---------x-----------x---x-|
B|-------0-x---------0-x-0-x-|
G|-------0-x-------0---x-0-x-|
D|-0---2---x-0---2-----x-0-x-|
A|---------x-----------x---x-|
E|---0-----x---0-------x---x-|

     Bm
E|-------2-x---------2-x-2-x-|
B|-------3-x-------3---x-3-x-|
G|-----4---x-0---4-----x-4-x-|
D|-0-------x-----------x---x-|
A|---2-----x---2-------x---x-|
E|---------x-----------x---x-|

[Primeira Parte]

   C9
E|---------x-----------x---x-|
B|-5-----5-x---5-----5-x-5-x-|
G|-4-----4-x---4-----4-x-4-x-|
D|-5-----5-x---5-----5-x-5-x-|
A|-3-------x---3-------x---x-|
E|---------x-----------x---x-|

   Am
E|---------x-----------x---x-|
B|-1-----1-x---1-----1-x-1-x-|
G|-2-----2-x---2-----2-x-2-x-|
D|-2-----2-x---2-----2-x-2-x-|
A|-0-------x---0-------x---x-|
E|---------x-----------x---x-|

   Em
E|---------x-----------x---x-|
B|-0-----0-x---0-----0-x-0-x-|
G|-0-----0-x---0-----0-x-0-x-|
D|-2-----2-x---2-----2-x-2-x-|
A|---------x-----------x---x-|
E|-0-------x---0-------x---x-|

   Bm
E|-2-----2-x---2-----2-x-2-x-|
B|-3-----3-x---3-----3-x-3-x-|
G|-4-----4-x---4-----4-x-4-x-|
D|---------x-----------x---x-|
A|-2-------x---2-------x---x-|
E|---------x-----------x---x-|

C9
Já pensou no sentido da vida
Am
Nenhum de nós queria que fosse assim
Em
Já sentiu raiva de se olhar no espelho
Bm
E perceber que o mundo ja chegou no fim

[Base]

C9
Ei moça volte aqui
Am
E olhe nos meus olhos
Em
E diga que não me ama mais
Bm
Que me odeia, pelo simples existir

C9
Você já se perguntou?
Am
"Porque viver machuca tanto assim?"
Em
Será que é porque vocês não se importam mais
Bm
Se hoje eu não estou feliz

C9
Quantas letras merda eu já fiz
Am
Todo dia pensando em desistir
Em
Será porquê eu fracasso me domina
Bm
Na tarefa de ser feliz

[Passagem]

   C9
E|-------x-----------x---x-|
B|-----5-x---------5-x-4-x-|
G|-----4-x-------4---x-4-x-|
D|---5---x-0---5-----x-5-x-|
A|-3-----x---4-------x---x-|
E|-------x-----------x---x-|

     Am
E|---------------------------|
B|-------1-x---------1-x-1-x-|
G|-------2-x-------2---x-2-x-|
D|-0---2---x-0---2-----x-2-x-|
A|---0-----x---0-------x---x-|
E|---------------------------|

     Em
E|---------x-----------x---x-|
B|-------0-x---------0-x-0-x-|
G|-------0-x-------0---x-0-x-|
D|-0---2---x-0---2-----x-0-x-|
A|---------x-----------x---x-|
E|---0-----x---0-------x---x-|

     Bm
E|-------2-x---------------2-|
B|-------3-x-----------3-----|
G|-----4---x-0-----4---------|
D|-0-------x-----------------|
A|---2-----x---2-------------|
E|---------x-----------------|

[Pré-Refrão]

C9
Todos me perguntam porque eu sou assim
Am
Digo que estão tentando me destruir
Em
Será que o meu destino não é feliz
Bm
Ou é consequências de tudo que eu fiz

[Refrão]

C9
Porque a morte me deseja tanto assim?
Am
Será que dessa vez eu irei chegar no fim?
Em
O mundo inteiro está querendo me destruir
Bm
Talvez chegou a hora de sumir daqui

C9
Porque a morte me deseja tanto assim?
Am
Será que é porque já chegar meu fim?
Em
O mundo inteiro está querendo me por um fim
Bm
Talvez chegou a hora de sumir daqui

C9
Porque a morte me deseja tanto assim?
Am
Será que dessa vez eu irei chegar no fim?
Em
O mundo todo está querendo me destruir
Bm
Talvez chegou a hora de sumir daqui

[Final]

   C9
E|-------x-----------x---x-|
B|-----5-x---------5-x-4-x-|
G|-----4-x-------4---x-4-x-|
D|---5---x-0---5-----x-5-x-|
A|-3-----x---4-------x---x-|
E|-------x-----------x---x-|

     Am
E|---------------------------|
B|-------1-x---------1-x-1-x-|
G|-------2-x-------2---x-2-x-|
D|-0---2---x-0---2-----x-2-x-|
A|---0-----x---0-------x---x-|
E|---------------------------|

     Em
E|---------x-----------x---x-|
B|-------0-x---------0-x-0-x-|
G|-------0-x-------0---x-0-x-|
D|-0---2---x-0---2-----x-0-x-|
A|---------x-----------x---x-|
E|---0-----x---0-------x---x-|

     Bm
E|-------2-x---------2-x-2-x-|
B|-------3-x-------3---x-3-x-|
G|-----4---x-0---4-----x-4-x-|
D|-0-------x-----------x---x-|
A|---2-----x---2-------x---x-|
E|---------x-----------x---x-|

De sumir daqui

   C9
E|-------x-----------x---x-|
B|-----5-x---------5-x-4-x-|
G|-----4-x-------4---x-4-x-|
D|---5---x-0---5-----x-5-x-|
A|-3-----x---4-------x---x-|
E|-------x-----------x---x-|

     Am
E|---------------------------|
B|-------1-x---------1-x-1-x-|
G|-------2-x-------2---x-2-x-|
D|-0---2---x-0---2-----x-2-x-|
A|---0-----x---0-------x---x-|
E|---------------------------|

     Em
E|---------x-----------x---x-|
B|-------0-x---------0-x-0-x-|
G|-------0-x-------0---x-0-x-|
D|-0---2---x-0---2-----x-0-x-|
A|---------x-----------x---x-|
E|---0-----x---0-------x---x-|

     Bm
E|-------2-x---------2-x-2-x-|
B|-------3-x-------3---x-3-x-|
G|-----4---x-0---4-----x-4-x-|
D|-0-------x-----------x---x-|
A|---2-----x---2-------x---x-|
E|---------x-----------x---x-|

   C9
E|-------x-----------x---x-|
B|-----5-x---------5-x-4-x-|
G|-----4-x-------4---x-4-x-|
D|---5---x-0---5-----x-5-x-|
A|-3-----x---4-------x---x-|
E|-------x-----------x---x-|

     Am
E|---------------------------|
B|-------1-x---------1-x-1-x-|
G|-------2-x-------2---x-2-x-|
D|-0---2---x-0---2-----x-2-x-|
A|---0-----x---0-------x---x-|
E|---------------------------|

     Em
E|---------x-----------x---x-|
B|-------0-x---------0-x-0-x-|
G|-------0-x-------0---x-0-x-|
D|-0---2---x-0---2-----x-0-x-|
A|---------x-----------x---x-|
E|---0-----x---0-------x---x-|

     Bm
E|-------2-x---------2-x-2-x-|
B|-------3-x-------3---x-3-x-|
G|-----4---x-0---4-----x-4-x-|
D|-0-------x-----------x---x-|
A|---2-----x---2-------x---x-|
E|---------x-----------x---x-|
00:00 / 00:00
Outros vídeos desta música
Repetir
Outros vídeos desta música
Composição de La Muerte
Colaboração e revisão:
  • La Muerte
1 exibições
    • ½ Tom
    • A
    • Bb
    • B
    • C
    • Db
    • D
    • Eb
    • E
    • F
    • F#
    • G
    • Ab
  • Adicionar à lista

    0 comentários

    Ver todos os comentários

    Conseguiu tocar?

    0 Tocaram 0 Ainda não

    Grave um vídeo tocando Porquê a Morte Me Deseja Tanto? Pt.1 e nos envie!

    Entre para oCifra Club PRO

    Tenha acesso a benefícios exclusivos no App e no Site

    • Chega de anúncios

    • Prioridade de compra em lançamentos

    • Mais recursos no app do Afinador

    • Atendimento Prioritário

    • Descontos nos produtos Cifra Club

    • Ajude a produzir mais conteúdo

    00:00 / 00:00

    Cifra Club Pro

    Aproveite o Cifra Club com benefícios exclusivos e sem anúncios
    Cifra Club Pro
    Aproveite o Cifra Club com benefícios exclusivos e sem anúncios
    OK