Cifra Club

Presta Atenção

La Muerte

Cifra: Principal (violão e guitarra)
tom: Db (forma dos acordes no tom de B) Capotraste na 2ª casa
[Intro]

   B7M             Gb6
E|-----------------------------------|
B|---4-4-4---4-4-4---4-4-4---4-4-4---|
G|---3-3-3---3-3-3---3-3-3---3-3-3---|
D|---4-4-4---4-4-4---4-4-4---4-4-4---|
A|-2---2---2---2---------------------|
E|-----------------2---2---2---2-----|

   Ebm/Ab          Bb4/E
E|-----------------------------------|
B|---4-4-4---4-4-4---4-4-4---4-4-4-4-|
G|---3-3-3---3-3-3---3-3-3---3-3-3-3-|
D|---4-4-4---4-4-4---4-4-4---4-4-4-4-|
A|-----------------------------------|
E|-4---4---4---4---0---0---0---0---0-|

[Primeira Parte]

           B7M
Preste atenção
                                Gb6
Porque eu só vou dizer mais uma vez
                             Ebm/Ab
Que hoje completo mais de um mês
                                  Bb4/E
Ao seu lado complicações eu não passei
                            B7M
E agora com você sempre estarei

                               Gb6
Quero te lembrar que vou te mandar
                              Ebm/Ab
Mais do que flores pra te agradar
                                               Bb4/E
Que vou te beijar e te abraçar, te encher de carinho
                                                     B7M
Independente do que aconteça nunca vou perder meu anjinho

( Gb6  Ebm/Ab  Bb4/E )

[Refrão]

B7M                            Gb6
Só quero dizer que eu vou amar você
                          Ebm/Ab
Que jamais eu vou te esquecer
                                Bb4/E
Esses momentos que fizeram eu viver
                             
É por isso que eu vou amar você

[Segunda Parte]

   B7M             Gb6
E|-----------------------------------|
B|---4-4-4---4-4-4---4-4-4---4-4-4---|
G|---3-3-3---3-3-3---3-3-3---3-3-3---|
D|---4-4-4---4-4-4---4-4-4---4-4-4---|
A|-2---2---2---2---------------------|
E|-----------------2---2---2---2-----|

   Ebm/Ab          Bb4/E
E|-----------------------------------|
B|---4-4-4---4-4-4---4-4-4---4-4-4-4-|
G|---3-3-3---3-3-3---3-3-3---3-3-3-3-|
D|---4-4-4---4-4-4---4-4-4---4-4-4-4-|
A|-----------------------------------|
E|-4---4---4---4---0---0---0---0---0-|

           B7M
Presta atenção
                          Gb6
Porque igual você ninguém fez
                                  Ebm/Ab
Bateu na minha porta e só pensei uma vez
                             Bb4/E
Te convido assistir o pôr do Sol
                             B7M
Naquele fim de tarde em dó maior

                              Gb6
Quero te falar como é tocar a Lua
                       Ebm/Ab
E mesmo sem poder imaginar
                            Bb4/E
Sensação melhor foi te encontrar
                         B7M  Gb6
Apaga essa tua insegurança
                   Ebm/Ab 
Entra pra minha história
           Bb4/E
Não pra lembrança

[Refrão]

B7M                           Gb6
Só quero dizer que eu vou até você
                       Ebm/Ab
Que jamais eu vou te esquecer
                                Bb4/E
Esses momentos que fizeram eu viver
                             
É por isso que eu vou amar você você

[Final]

   B7M             Gb6
E|-----------------------------------|
B|---4-4-4---4-4-4---4-4-4---4-4-4---|
G|---3-3-3---3-3-3---3-3-3---3-3-3---|
D|---4-4-4---4-4-4---4-4-4---4-4-4---|
A|-2---2---2---2---------------------|
E|-----------------2---2---2---2-----|

   Ebm/Ab          Bb4/E
E|-----------------------------------|
B|---4-4-4---4-4-4---4-4-4---4-4-4-4-|
G|---3-3-3---3-3-3---3-3-3---3-3-3-3-|
D|---4-4-4---4-4-4---4-4-4---4-4-4-4-|
A|-----------------------------------|
E|-4---4---4---4---0---0---0---0---0-|

   B7M             Gb6
E|-----------------------------------|
B|---4-4-4---4-4-4---4-4-4---4-4-4---|
G|---3-3-3---3-3-3---3-3-3---3-3-3---|
D|---4-4-4---4-4-4---4-4-4---4-4-4---|
A|-2---2---2---2---------------------|
E|-----------------2---2---2---2-----|

   Ebm/Ab          Bb4/E
E|-----------------------------------|
B|---4-4-4---4-4-4---4-4-4---4-4-4-4-|
G|---3-3-3---3-3-3---3-3-3---3-3-3-3-|
D|---4-4-4---4-4-4---4-4-4---4-4-4-4-|
A|-----------------------------------|
E|-4---4---4---4---0---0---0---0---0-|
00:00 / 00:00
Outros vídeos desta música
Repetir
Outros vídeos desta música
Composição de La Muerte / Uchū
Colaboração e revisão:
  • La Muerte
1 exibições
    • ½ Tom
    • A
    • Bb
    • B
    • C
    • Db
    • D
    • Eb
    • E
    • F
    • F#
    • G
    • Ab
  • Adicionar à lista

    0 comentários

    Ver todos os comentários

    Conseguiu tocar?

    0 Tocaram 0 Ainda não

    Grave um vídeo tocando Presta Atenção e nos envie!

    Entre para oCifra Club PRO

    Tenha acesso a benefícios exclusivos no App e no Site

    • Chega de anúncios

    • Prioridade de compra em lançamentos

    • Mais recursos no app do Afinador

    • Atendimento Prioritário

    • Descontos nos produtos Cifra Club

    • Ajude a produzir mais conteúdo

    00:00 / 00:00

    Cifra Club Pro

    Aproveite o Cifra Club com benefícios exclusivos e sem anúncios
    Cifra Club Pro
    Aproveite o Cifra Club com benefícios exclusivos e sem anúncios
    OK