Cifra Club

Saudades de Você Pt.2

La Muerte

Cifra: Principal (violão e guitarra)
tom: G
[Intro]

Riff 1

   F5              
E|---------------------------------|
B|---5---5---5---5---5---5---5---5-|
G|---5---5---5---5---5---5---5---5-|
D|-3---3---3---3---3---3---3---3---|
A|---------------------------------|
E|---------------------------------|

   C
E|---------------------------------|
B|---5---5---5---5---5---5---5---5-|
G|---5---5---5---5---5---5---5---5-|
D|---------------------------------|
A|-3---3---3---3---3---3---3---3---|
E|---------------------------------|

   C9/D
E|---------------------------------|
B|---5---5---5---5---5---5---5---5-|
G|---5---5---5---5---5---5---5---5-|
D|---------------------------------|
A|-5---5---5---5---5---5---5---5---|
E|---------------------------------|

   E4/A
E|---------------------------------|
B|---5---5---5---5---5---5---5---5-|
G|---5---5---5---5---5---5---5---5-|
D|---------------------------------|
A|-0---0---0---0---0---0---0---0---|
E|---------------------------------|

   F5              
E|---------------------------------|
B|---5---5---5---5---5---5---5---5-|
G|---5---5---5---5---5---5---5---5-|
D|-3---3---3---3---3---3---3---3---|
A|---------------------------------|
E|---------------------------------|

   C
E|---------------------------------|
B|---5---5---5---5---5---5---5---5-|
G|---5---5---5---5---5---5---5---5-|
D|---------------------------------|
A|-3---3---3---3---3---3---3---3---|
E|---------------------------------|

   C9/D
E|---------------------------------|
B|---5---5---5---5---5---5---5---5-|
G|---5---5---5---5---5---5---5---5-|
D|---------------------------------|
A|-5---5---5---5---5---5---5---5---|
E|---------------------------------|

   E4/A
E|---------------------------------|
B|---5---5---5---5---5---5---5---5-|
G|---5---5---5---5---5---5---5---5-|
D|---------------------------------|
A|-0---0---0---0---0---0---0---0---|
E|---------------------------------|

[Primeira Parte]

( F5  C  C9/D  E4/A )

F5
Procurei você
C
Tentei te entender
C9/D
Mas não sei pra que
E4/A
Não culpo você

F5        C
Por mim estaríamos juntos outra vez
   C9/D
Em menos de: um, dois, três
E4/A
Ou até em um mês

F5   C
Mas, porquê
C9/D
Aconteceu conosco?
F5  Cno5
Mas,não sei
C9/D
O que fazer

F5
Só tenho você
C
Agora não tenho mais
C9/D
Tenho que te esquecer
E4/A
Isso dói demais

F5
Não quero te perder
C
Quero te reconquistar
C9/D
Mesmo que demore um ano ou mais
E4/A
Eu vou correr atrás!

F5       C       C9/D            E4/A
La...... Lá, lá, lá, lá, lá, lá, lá, lá
F5       C       C9/D            E4/A
La...... Lá, lá, lá, lá, lá, lá, lá, lá

Riff 2

   F5         C          C9/D       E4/A
E|---------------------------------------------|
B|---5---5--5---5---5--5---5---5--5---5---5--5-|
G|---5---5--5---5---5--5---5---5--5---5---5--5-|
D|-3---3---------------------------------------|
A|------------3---3------5---5------0---0------|
E|---------------------------------------------|

Riff 3

   F5              C
E|---------------------------------|
B|---5---5---5---5---5---5---5---5-|
G|---5---5---5---5---5---5---5---5-|
D|-3---3---3---3-------------------|
A|-----------------3---3---3---3---|
E|---------------------------------|

   C9/D            E4/A
E|---------------------------------|
B|---5---5---5---5---5---5---5---5-|
G|---5---5---5---5---5---5---5---5-|
D|---------------------------------|
A|-5---5---5---5---0---0---0---0---|
E|---------------------------------|

F5            C
Mas se um dia eu te perder
C9/D                E4/A
Saiba que eu sempre amarei você
F5       C
Então... deixe acontecer
C9/D                          E4/A
Se for pra gente voltar, o destino nos unirá!

F5       C       C9/D            E4/A
La...... Lá, lá, lá, lá, lá, lá, lá, lá
F5       C       C9/D            E4/A
La...... Lá, lá, lá, lá, lá, lá, lá, lá

F5          C
Mas se você não me quiser
C9/D                     E4/A
Tenho que aceitar a vida como ela está!

F5       C       C9/D            E4/A
La...... Lá, lá, lá, lá, lá, lá, lá, lá
F5       C       C9/D            E4/A
La...... Lá, lá, lá, lá, lá, lá, lá, lá

   F   C   D   E4/A
E|------------------|
B|-------------5----|
G|-------------5----|
D|-3----------------|
A|-----3---5---0----|
E|------------------|
00:00 / 00:00
Outros vídeos desta música
Repetir
Outros vídeos desta música
Composição de La Muerte
Colaboração e revisão:
  • La Muerte
3 exibições
    • ½ Tom
    • A
    • Bb
    • B
    • C
    • Db
    • D
    • Eb
    • E
    • F
    • F#
    • G
    • Ab
  • Adicionar à lista

    0 comentários

    Ver todos os comentários

    Conseguiu tocar?

    0 Tocaram 0 Ainda não

    Grave um vídeo tocando Saudades de Você Pt.2 e nos envie!

    Entre para oCifra Club PRO

    Tenha acesso a benefícios exclusivos no App e no Site

    • Chega de anúncios

    • Prioridade de compra em lançamentos

    • Mais recursos no app do Afinador

    • Atendimento Prioritário

    • Descontos nos produtos Cifra Club

    • Ajude a produzir mais conteúdo

    00:00 / 00:00

    Cifra Club Pro

    Aproveite o Cifra Club com benefícios exclusivos e sem anúncios
    Cifra Club Pro
    Aproveite o Cifra Club com benefícios exclusivos e sem anúncios
    OK