Cifra Club

Se Vier Reclamar Te Transformo Em Fantasma

La Muerte

Cifra: Principal (violão e guitarra)
tom: F# (forma dos acordes no tom de G) Afinação: Eb Ab Db Gb Bb Eb
Intro: B5, D9, A6, C5-

Riff 1:

   B5              D9               A6
E|-------------------------------------------------|
B|-------------------------------------------------|
G|---------0---------------0---------------0-------|
D|---4---4---4---4---4---4---4---4---4---4---4---4-|
A|-2---2-------2---5---5-------5---0---0-------0---|
E|-------------------------------------------------|

   C5-             B5              D9
E|-------------------------------------------------|
B|-------------------------------------------------|
G|---------0---------------0---------------0-------|
D|---4---4---4---4---4---4---4---4---4---4---4---4-|
A|-3---3-------3---2---2-------2---5---5-------5---|
E|-------------------------------------------------|

   A6              C5-
E|-----------------------------------------------------|
B|-----------------------------------------------------|
G|---------0---------------0-------------------0-------|
D|---4---4---4---4---4---4---4---4---4---4---4---4---4-|
A|-0---0-------0---3---3-------3---3---3---3-------3---|
E|-----------------------------------------------------|

   C5-
E|-----0-|
B|----0--|
G|---0---|
D|--4----|
A|-3-----|
E|-------|

C5-

Primeira Parte:

B5
Vamos só mais uma vez
D9
Viajar entre as estrelas
A6
Se perder entre essas três
C5-
E fazer desaparece-las

B5
Minha alma está aflita
D9
Completa de pesadelos
A6
Minha vida se complica 
C5-
E eu entro em desespero

B5
Minha feridas cicatrizam
D9
Quando eu cometo loucura
A6
O desespero me enrraivisa
C5-
Minha mente é imatura

B5
Os meus cortes quase crescem 
D9
Por causa de confusão
A6
Minha feridas me enlouquecem
C5-
Magoam meu coração

Pré-Refrão: 

B5, B5+, B5, B5+

B5   B5+   B5      B5+
Mas  se  você  acordar
B5   B5+   B5      B5+
Mas  se  você  acordar

Refrão:

B5            A6
Pesadelos acontecem
                G7  
Você tem que aturar
                C5-   
Pode crer é bem difícil
                 B5
Não consigo explicar
              A6
Pesadelos acontecem
                G7
Você tem que aturar
                A6
Pode crer é bem difícil
                  C5-
Você tem que explicar

Segundo Refrão:

B5, B5+, C5-
B5, B5+, C5-

B5    D9
Então sinta essa dor
A6
Que infringe sua alma
C5-  
Se vier reclamar
                    B5
Te transformo em fantasma

D9
Sinta essa dor
A
Que infringe sua alma
C5-+
Se vier reclamar

Te transformo em fantasma

B5, D9, A6, C5-
B5, D9, A6, C5-

Segunda Intro: B5, D9, A6, C5-

Riff 2 (mesma coisa que o riff 1 porém 2x mais rápido):

   B5              D9               A6
E|-------------------------------------------------|
B|-------------------------------------------------|
G|---------0---------------0---------------0-------|
D|---4---4---4---4---4---4---4---4---4---4---4---4-|
A|-2---2-------2---5---5-------5---0---0-------0---|
E|-------------------------------------------------|

   C5-             B5              D9
E|-------------------------------------------------|
B|-------------------------------------------------|
G|---------0---------------0---------------0-------|
D|---4---4---4---4---4---4---4---4---4---4---4---4-|
A|-3---3-------3---2---2-------2---5---5-------5---|
E|-------------------------------------------------|

   A6              C5-
E|-----------------------------------------------------|
B|-----------------------------------------------------|
G|---------0---------------0-------------------0-------|
D|---4---4---4---4---4---4---4---4---4---4---4---4---4-|
A|-0---0-------0---3---3-------3---3---3---3-------3---|
E|-----------------------------------------------------|

   C5-
E|-----0-|
B|----0--|
G|---0---|
D|--4----|
A|-3-----|
E|-------|

C5-

Primeira Parte:

B5
Vamos só mais uma vez
D9
Viajar entre as estrelas
A6
Se perder entre essas três
C5-
E fazer desaparece-las

B5
Minha alma está aflita
D9
Completa de pesadelos
A6
Minha vida se complica 
C5-
E eu entro em desespero

B5
Minha feridas cicatrizam
D9
Quando eu cometo loucura
A6
O desespero me enrraivisa
C5-
Minha mente é imatura

B5
Os meus cortes quase crescem 
D9
Por causa de confusão
A6
Minha feridas me enlouquecem
C5-
Magoam meu coração

Pré-Refrão: 

B5, B5+, B5, B5+

B5   B5+   B5      B5+
Mas  se  você  acordar
B5   B5+   B5      B5+
Mas  se  você  acordar

Refrão:

B5            A6
Pesadelos acontecem
                G7  
Você tem que aturar
                C5-   
Pode crer é bem difícil
                 B5
Não consigo explicar
              A6
Pesadelos acontecem
                G7
Você tem que aturar
                A6
Pode crer é bem difícil
                  C5-
Você tem que explicar

Segundo Refrão:

B5, B5+, C5-
B5, B5+, C5-

B5    D9
Então sinta essa dor
A6
Que infringe sua alma
C5-  
Se vier reclamar
                    B5
Te transformo em fantasma

D9
Sinta essa dor
A
Que infringe sua alma
C5-+
Se vier reclamar

Te transformo em fantasma

B5, D9, A6, C5-
B5, D9, A6, C5-

Riff 3:

   B5              D9            A6
E|---------------------------------------------|
B|---------------------------------------------|
G|---------0-------------0-------------0-------|
D|---4---4---4---4---4-----4---4---4-----4---4-|
A|-2---2-------2---5---5-----5---0---0-----0---|
E|---------------------------------------------|

   C5-
E|-----------------|
B|-----------------|
G|---------0-------|
D|---4---3---4---4-|
A|-3---3-------3---|
E|-----------------|

   B5              D9            A6
E|---------------------------------------------|
B|---------------------------------------------|
G|---------0-------------0-------------0-------|
D|---4---4---4---4---4-----4---4---4-----4---4-|
A|-2---2-------2---5---5-----5---0---0-----0---|
E|---------------------------------------------|

   C5-
E|-----0---------|
B|----0----------|
G|---0-----------|
D|--4------------|
A|-3-------------|
E|---------------|
00:00 / 00:00
Outros vídeos desta música
Repetir
Outros vídeos desta música
Composição de La Muerte
Colaboração e revisão:
  • La Muerte
7 exibições
    • ½ Tom
    • A
    • Bb
    • B
    • C
    • Db
    • D
    • Eb
    • E
    • F
    • F#
    • G
    • Ab
  • Adicionar à lista

    0 comentários

    Ver todos os comentários

    Conseguiu tocar?

    0 Tocaram 0 Ainda não

    Grave um vídeo tocando Se Vier Reclamar Te Transformo Em Fantasma e nos envie!

    Entre para oCifra Club PRO

    Tenha acesso a benefícios exclusivos no App e no Site

    • Chega de anúncios

    • Prioridade de compra em lançamentos

    • Mais recursos no app do Afinador

    • Atendimento Prioritário

    • Descontos nos produtos Cifra Club

    • Ajude a produzir mais conteúdo

    00:00 / 00:00

    Cifra Club Pro

    Aproveite o Cifra Club com benefícios exclusivos e sem anúncios
    Cifra Club Pro
    Aproveite o Cifra Club com benefícios exclusivos e sem anúncios
    OK