Cifra Club

Sem Felicidades

La Muerte

Cifra: Principal (violão e guitarra)
tom: Ab (forma dos acordes no tom de G) Capotraste na 1ª casa
[Intro]

   Bm              A
E|---------------2-------------------|
B|-----3-------3-3-----2-----2h3p2---|
G|-----4-----4---4-----2-------------|
D|---4-----4-----4---2-----2-------2-|
A|-2-----2-------2-0-----0-----------|
E|-----------------------------------|

   G               F#
E|---------------3-------------2-|
B|-----3-------3-3-----2-------2-|
G|-----4-----4---4-----4-----3-3-|
D|---5-----5-----5---4-----4---4-|
A|---------------5-------------4-|
E|-3-----3-------3-2-----2-----2-|

[Primeira Parte]

   Bm
Eu vejo ao redor, todo mundo está feliz
A
Conquistando tudo que eu sempre quis
G
Sempre que olho pro meu passado
F#
Me pergunto, o que eu fiz de errado?

Bm
Preste atenção, pois vou contar minha história
A
Só de lembrar, quero outra dose agora
G
Ao longo do tempo, percebi que tenho errado
F#
Quantas vezes eu vivi momentos que deixei de lado

Bm                                   A
Com pessoas da vida que eu fracassei
                                          G   F#
Sempre que tem falha é sempre eu que errei
Bm
Olhe para mim, diga como eu estou agora
A                                            G   F#
E se a fama subir, ainda vou querer ir embora

[Segunda Parte]

   Bm              A
E|---------------2-------------------|
B|-----3-------3-3-----2-----2h3p2---|
G|-----4-----4---4-----2-------------|
D|---4-----4-----4---2-----2-------2-|
A|-2-----2-------2-0-----0-----------|
E|-----------------------------------|

   G               F#
E|---------------3-------------2-|
B|-----3-------3-3-----2-------2-|
G|-----4-----4---4-----4-----3-3-|
D|---5-----5-----5---4-----4---4-|
A|---------------5-------------4-|
E|-3-----3-------3-2-----2-----2-|

Bm
Eu sei que tá pensando
A
Nossa porque tu vive é assim?
G
Quando tu sentir o gosto da vida
                F#
Aí sim vai descobrir

Bm
O que adianta fama e dinheiro se não tô feliz?
A                                                G  F#
Todos momentos de felicidade, infelizmente eu fingi

Bm
O que adianta fama e dinheiro se não tô feliz?
A                                                G  F#
Todos momentos de felicidade, infelizmente eu fingi

   Bm              A
E|---------------2-------------------|
B|-----3-------3-3-----2-----2h3p2---|
G|-----4-----4---4-----2-------------|
D|---4-----4-----4---2-----2-------2-|
A|-2-----2-------2-0-----0-----------|
E|-----------------------------------|

   G               F#
E|---------------3-------------2-------------2-|
B|-----3-------3-3-----2-------2-----2-------2-|
G|-----4-----4---4-----3-----3-3-----3-----3-3-|
D|---5-----5-----5---4-----4---4---4-----4---4-|
A|---------------5-------------4-------------4-|
E|-3-----3-------3-2-----2-----2-2-----2-----2-|
00:00 / 00:00
Outros vídeos desta música
Repetir
Outros vídeos desta música
Composição de La Muerte
Colaboração e revisão:
  • La Muerte
5 exibições
    • ½ Tom
    • A
    • Bb
    • B
    • C
    • Db
    • D
    • Eb
    • E
    • F
    • F#
    • G
    • Ab
  • Adicionar à lista

    0 comentários

    Ver todos os comentários

    Conseguiu tocar?

    0 Tocaram 0 Ainda não

    Grave um vídeo tocando Sem Felicidades e nos envie!

    Entre para oCifra Club PRO

    Tenha acesso a benefícios exclusivos no App e no Site

    • Chega de anúncios

    • Prioridade de compra em lançamentos

    • Mais recursos no app do Afinador

    • Atendimento Prioritário

    • Descontos nos produtos Cifra Club

    • Ajude a produzir mais conteúdo

    00:00 / 00:00

    Cifra Club Pro

    Aproveite o Cifra Club com benefícios exclusivos e sem anúncios
    Cifra Club Pro
    Aproveite o Cifra Club com benefícios exclusivos e sem anúncios
    OK