Las Marras

La Polla Records

tom: G
INTRO:

E|-------------------------------------------------------------------|
B|-------------------------------------------------------------------|
G|-11----7----4----2---------4---2---------4---2---------------------|
D|-----------------------4-------------4-------------4---------------|
A|-------------------------------------------------------------------|
E|-------------------------------------------------------------------|

E|---------------------------------------------|
B|---------------------------------------------|
G|--11----7----4----2---------4---2--2--4---2--|
D|------------------------4--------------------|
A|---------------------------------------------|
E|---------------------------------------------|





Justo en la última nota empieza a sonar:

RIFF 1

E|-------------------|
B|-------------------|
G|---7*----5---------|
D|---7*----5---5-----|
A|---5*----3---5-----|
E|-------------3-----|

*Se toca varias veces (escuchar la canción)

RIFF 2

E|--------------------------------------------|
B|--------------------------------------------|
G|--------------------------------------------|
D|--------------------------------------------|
A|--0--3--0-----0--3--0-----0-----0--2--3-3-3-|
E|-----------3-----------3-----3--------------|


ESTRIBILLO (de esta parte no estoy seguro, pero bueno)

D5  C5   G5              D5      C5      G5







RIFF 3

E|-----------------------------------------------------------------------|
B|-----------------------------------------------------------------------|
G|--7-7-9-9-11-11-11h12p11--9-9-9h11p9--7-7-------7-7-9-9-11-11-11h12p11-|
D|------------------------------------------7----------------------------|
A|-----------------------------------------------------------------------|
E|-----------------------------------------------------------------------|

E|---------------|
B|---------------|
G|--9-9-9h11p9-7-|
D|---------------|
A|---------------|
E|---------------|
Página 1 / 1

Letras e título
Acordes e artista

resetar configurações
OK