Los 7 enanitos

La Polla Records

tom: G
E|------------------------------------------------------------|
B|---------------5----------------------------5-6-------------|
G|--5--4-2---5-7---7--45454545----4-5---4-5-7-----5-7-4-5-----|
D|-5----------------------------------5-----------------------|
A|------------------------------------------------------------|
E|------------------------------------------------------------|

Después, los versos son: C- A- D- G   (riff)

C               A 
Ay ho! Ay ho! Al boske a trabajar
D               G  
Los enanitos buenos, tenemos ke kurrar

I asi sigue toa la kancion.. hasta el final..al final el punteo


E|------------------------------------------------------------|
B|--------------------------5-6-------------------------------|
G|-----7-5-4-5------4-5-7-------5-7-4-5-5/17------------------|
D|-------------5-5--------------------------------------------|
A|------------------------------------------------------------|
E|------------------------------------------------------------|
Página 1 / 1

Letras e título
Acordes e artista

resetar configurações
OK