Los perros, la carne

La Polla Records

tom: E

E|---------------------------------|
B|---------------------------------|
G|---------------------------------|
D|---------------------------------|
A|---9--9--9--9-9----7--7--7--7-7--|
E|-9---9--9--9-----7---7--7--7-----|

E|---------------------------------|
B|---------------------------------|
G|---------------------------------|
D|-11----11-11---11----11-11-------|
A|----9-9-----9-----9-9-----9------|
E|---------------------------------|

F# C#  F#  C#  F#  C# F# C#
Ya vie nen las fur go ne tas
E  B    E  B  E   B  E  B
ha cien do so nar si re nas
F#           G# A G# F# B           C# D C# B
  Los perros,            la carne...

Salen todopoderosos con sus armas relucientes
Los perros, la carne... los perros...
C#                                                        B B
Una zona que hay que limpiar, carne humana que despojar,
C#
carne donde poder usar este nuevo material
B                G# A
  Los perros...

F#           G# A G# F# B           C# D C# B
C#
Carne blanda, carne, miedo, carne cruda, carne y sangre
B     G# A F#           G# A G# F# B
Carne...     los perros,            la carne...
C# D C# B F#            G# A G# F# B    C# D C# B
            los perros...
F#   C#  F# C#  F# C#  F# C#
Cuer pos ro tos y  des or den,
E   B   E   B  E    B  E  B
han cum pli do bien la or den
F#          G# A G# F# B           C# D C# B
 Los perros,            la carne...
F#          G# A G# F# B           C# D C# B
  Los perros...

E|---------------------------------|
B|---------------------------------|
G|---------------------------------|
D|---------------------------------|
A|---9--9--9--9-9----7--7--7--7-7--|
E|-9---9--9--9-----7---7--7--7-----|

E|------------------------------------|
B|------------------------------------|
G|------------------------------------|
D|-11----11-11------11----11-11-------|
A|----9-9-----9--------9-9-----9------|
E|------------------------------------|
Esto no es el final. Mañana volveran
Página 1 / 1

Letras e título
Acordes e artista

resetar configurações
OK