Cifra Club

No Somos Nada

La Polla Records

Tab de baixo: Principal
G|----------------|----------------|
D|----------------|---------------5|
A|----------------|----------------|
E|----------------|----------------|
  0 - & - 1 - & -  2 - & - 3 - & - 4

[Intro]

G|----------------|---------------4|2---------------|----------------|
D|4--44-----------|--------------5-|--------------42|0--------------5|
A|--------------07|5---------------|----------------|----------------|
E|----------------|----------------|----------------|----------------|
  0 - & - 1 - & -  2 - & - 3 - & -  0 - & - 1 - & -  2 - & - 3 - & - 4

G|----------------|---------------4|2---------------|----------------|
D|4-------------07|5-------------5-|--------------42|0---------------|
A|----------------|----------------|----------------|------023-------|
E|----------------|----------------|----------------|----------------|
  0 - & - 1 - & -  2 - & - 3 - & -  0 - & - 1 - & -  2 - & - 3 - & - 4

[Pré-Verso]

G|----------------|----------------|
D|----------------|----------------|
A|----3-3-----3-3-|----3-3-----3-3-|
E|1-1-----3-3-----|1-1-----3-3-----|
  0 & 1 & 2 & 3 &  0 & 1 & 2 & 3 & 4

[Verso]

G|----------------|----------------|----------------|----------------|
D|----------------|----------------|----------------|----------------|
A|----3-3-----3-3-|----3-3-----3---|----3-3-----3-3-|----3-3-----3---|
E|1-1-----3-3-----|1-1-----3-3-----|1-1-----3-3-----|1-1-----3-3-----|
  0 & 1 & 2 & 3 &  0 & 1 & 2 & 3 &  0 & 1 & 2 & 3 &  0 & 1 & 2 & 3 & 4

[Refrão]

G|----------------|----------------|
D|--------3-20----|--------3-20----|
A|3-3-3-3---------|3-3-3-3---------|
E|----------------|----------------|
  0 & 1 & 2 & 3 &  0 & 1 & 2 & 3 & 4
00:00 / 00:00
Outros vídeos desta música
Repetir
Outros vídeos desta música
Composição de Diego Coronado
Colaboração e revisão:
  • DIEGO coronado
28 exibições

0 comentários

Ver todos os comentários

Conseguiu tocar?

0 Tocaram 0 Ainda não

Grave um vídeo tocando No Somos Nada e nos envie!

Entre para oCifra Club PRO

Tenha acesso a benefícios exclusivos no App e no Site

  • Chega de anúncios

  • Prioridade de compra em lançamentos

  • Mais recursos no app do Afinador

  • Atendimento Prioritário

  • Descontos nos produtos Cifra Club

  • Ajude a produzir mais conteúdo

00:00 / 00:00

Cifra Club Pro

Aproveite o Cifra Club com benefícios exclusivos e sem anúncios
Cifra Club Pro
Aproveite o Cifra Club com benefícios exclusivos e sem anúncios
OK