Cifra Club

Der Klech Des Lebens

Lacrimosa

Cifra: Principal (violão e guitarra)
tom: C
QUE HONGO AMNATES DEL GOTICO AQUI LAS MANDO OTRO GRANDIOSO TAB
ALBUM: Inferno
COMPOSITORES: Tilo Wolff, Anne Nurmi, Jay P, AC
TRANSCRITA POR: ROBERT' MARTINEZ (RHOBZEL@*)

 ^ - hammer on, pull off                   
 b - bend string up                        
 r - release bend                          
 / - slide up                              
 \ - slide down                            
 ~ - vibrato                               
 T - tap                                   
 < - moderar volumen  
PM - palm mute                            
AH - armonico artificial

      EADGBe
Esus4 022200 
Asus2 x02200



INTRO:
teclados:
e|------------------------------------------------------------------------|
B|------------------------------------------------------------------------|
G|------------------------------------------------------------------------|
D|--4------4-4-----------------------------2-------2-2-----------------9--|-|
A|--2------2-2--------4---------4-4--------0-------0-0--------2--------7--| |
E|--------------------2---------2-2---------------------------0------0-0--| |
                               PM       mientras la guitarra                             .          |X2
                                                                            |
|-------------------------------------------------------------------------| |
|-------------------------------------------------------------------------| |
|--------------------------------------------------------------------5-5--|-|
|---------------------5--------5-5----------------------------5------5-5--|
|--3--------3---------3--------3-3---------5--------5-5-------3------3-3--|
|--1--------1------------------------------3--------3-3-------------------|



VERSO1:
Bm   F#m   Am   E   F   C   Gm   C



PRE-COROS:
G    E    Am    F    F-C   Esus4-E  Asus2-Am   Dm-G



VERSO2:
Bm   F#m   Am   E   F   C   Gm   C



PRE-COROS:
G    E    Am    F    F-C   Esus4-E  Asus2-Am   Dm-G



COROS: 
|--------------------------------------------|
|--------------------------------------------|
|--------------------------------------------|
|*|
|*|
|--------------------------------------------|
       PM         ..         ..         ..    
|--------------------------------------------|
|--------------------------------------------|
|--------------------------------------------|
|--------------------------------------------|
|*|
|*|
      ..         ..         ..         .. 
|--------------------------------------------|
|--------------------------------------------|
|--------------------------------------------|
|*|
|*|
|--------------------------------------------|
       ..         ..         ..         ..   
|--------------------------------------------|
|--------------------------------------------|
|--------------------------------------------|
|*|
|*|
|*|
      ..         ..         ..         ..
|------------------------------------------------|
|------------------------------------------------|
|------------------------------------------------|
|------------------------------------------------|
|*|
|*|
       ...         ...         ...         ...    
|--------------------------------------------|
|--------------------------------------------|
|--------------------------------------------|
|*|
|*|
|--------------------------------------------|
      ..         ..         ..         ..
|--------------------------------------------|
|--------------------------------------------|
|--------------------------------------------|
|--------------------------------------------|
|*|
|*|
      ..         ..         ..         ..
|--------------------------------------------|
|--------------------------------------------|
|--------------------------------------------|
|*|
|*|
|--------------------------------------------|
      ..         ..         ..         ..

  ES CON VELOCIDAD...
|--------------------------------------------|
|--------------------------------------------|
|--------------------------------------------|
|--------------------------------------------|------|
|*|      |
|*|      |
      ..         ..         ..         ..           |
|--------------------------------------------|      |
|--------------------------------------------|      |
|--------------------------------------------|------| 
|--------------------------------------------|      |
|*|      |
|*|      |REPETIR
      ..         ..         ..         ..           |HASTA EL FINAL
|--------------------------------------------|      |
|--------------------------------------------|      |
|--------------------------------------------|------|
|*|      |
|*|      |
|--------------------------------------------|      |
       ..         ..         ..         ..          |
|-----------------------------------------------|   |
|-----------------------------------------------|   |
|-----------------------------------------------|---|
|-----------------------------------------------|
|*|
|*|
      ...         ...         ...         ...    
Compositor não encontrado.
557 exibições
    • ½ Tom
    • A
    • Bb
    • B
    • C
    • Db
    • D
    • Eb
    • E
    • F
    • F#
    • G
    • Ab
  • Adicionar à lista

    0 comentários

    Ver todos os comentários

    Conseguiu tocar?

    0 Tocaram 0 Ainda não

    Grave um vídeo tocando Der Klech Des Lebens e nos envie!

    00:00 / 00:00
    Outros vídeos desta música
    Repetir Qualidade Automático
    Outros vídeos desta música
    00:00 / 00:00
    Automático

    Cifra Club Pro

    Aproveite o Cifra Club com benefícios exclusivos e sem anúncios
    Cifra Club Pro
    Aproveite o Cifra Club com benefícios exclusivos e sem anúncios
    OK