Cifra Club

Not Every Pain Hurts

Lacrimosa

Cifra: Principal (violão e guitarra)
tom: D
^ - hammer on, pull off                    
 b - bend string up                         
 r - release bend          
 / - slide up              
  - slide down                             
 ~ - vibrato          
 T - tap             
 x - struck string                          
 . - play the note and then mute it     
 < - raising volume    
PM - palm mute                             
AH - Artificial Harmonic     
 
This is the live version, but i guess it's nearly the same as 
the album 
vesion... 
 
INTRO: Accordeon  
 
 
 
VERSE1: 
-GUITAR1: 
  Gm            When you have the will.... 
|----3------3------3------3------3------3----| 
|------3------3------3------3------3------3--| 
|---3------3------3------3------3------3-----| 
|--------------------------------------------| 
|--------------------------------------------| 
|-3------3------3------3------3------3-------| 
  D 
|-----2-------2-------2-------2-------2-------2-------2-------2----| 
|-------3-------3-------3-------3-------3-------3-------3-------3--| 
|----2-------2-------2-------2-------2-------2-------2-------2-----| 
|-0-------0-------0-------0-------0-------0-------0-------0--------| 
|------------------------------------------------------------------| 
|------------------------------------------------------------------| 
  Gm 
|----3------3------3------3------3------3-------3------3----| 
|------3------3------3------3------3------3-------3------3--| 
|---3------3------3------3------3------3-------3------3-----| 
|-----------------------------------------------------------| 
|-----------------------------------------------------------| 
|-3------3------3------3------3------3------3-------3-------| 
  D 
|-----2-------2-------2-------2-------2-------2-------2-------2----| 
|-------3-------3-------3-------3-------3-------3-------3-------3--| 
|----2-------2-------2-------2-------2-------2-------2-------2-----| 
|-0-------0-------0-------0-------0-------0-------0-------0--------| 
|------------------------------------------------------------------| 
|------------------------------------------------------------------| 
  Gm 
|-----3------3----| 
|-------3------3--| 
|----3------3-----| 
|-----------------| 
|-----------------| 
|-3-------3-------| 
 
 
 
 
PREChorus:  
|------------------------3------3-------------------------------------| 
|-------8--------8---------3------3------8----------------7-------7---|FIG1 
|---------8--------8----3------3-----------8------8---------7-------7-| 
|-----8--------8-----------------------8--------8-------7-------7-----|X1 
|--6---------6----------------------6--------6------6-5-------5-------| 
|---------------------3------3----------------------------------------| 
  
 
 
 
Chorus:  
|---------------------------------------------------------------| 
|---------------------------------------------------------------|FIG2 
|---------8-------7----------------------8------8-7-------------| 
|-5-------8-------7------5-------5-------8------8-7-------5-----| 
|-5-------6-------5------5-------5-------6------6-5-------5-----|X1 
|-3----------------------3-------3------------------------3-----| 
  
 
 
 
POST-Chorus:  
|-------------------------------------------------------------| 
|-------------------------------------------------------------| 
|-----------------------5-5-5-------------------------5-5-5---| 
|--5-----5.-----5-5-----5-5-5----5-----5.-----5-5-----5-5-5---|X2 
|--5-----5.-----5-5-----3-3-3----5-----5.-----5-5-----3-3-3---| 
|--3-----3.-----3-3--------------3-----3.-----3-3-------------| 
 
 
 
 
VERSE2: 
GUITAR2:/ 
GUITAR1: 
   Gm                   D                               Gm 
|--3.------3.------3.------2.------2.------2.------2.------3.---| 
|--3.------3.------3.------3.------3.------3.------3.------3.---| 
|--3.------3.------3.------2.------2.------2.------2.------3.---| 
|--5.------5.------5.------0.------0.------0.------0.------5.---| 
|--5.------5.------5.--------------------------------------5.---| 
|--3.------3.------3.--------------------------------------3.---| 
  
 
(In this part both guitars match) 
|GUITAR1: clean 
|     Gm                                D       
|-----3.------------3.---------3.-----------2.---------2.------------2.-| 
|-----3.------------3.---------3.-----------3.---------3.------------3.-| 
|-----3.------------3.---------3.-----------2.---------2.------------2.-| 
|-----5.------------5.---------5.-----------0.---------0.------------0.-| 
|-----5.------------5.---------5.---------------------------------------| 
|-----3.------------3.---------3.---------------------------------------| 
|GUITAR2: distor 
|-----------------------------------------------------------------------| 
|-----------------------------------------------------------------------| 
|--------------------------------------7----7.----7----7.-------7----7.-| 
|5----5.-------5----5.----5----5.------7----7.----7----7.--7.---7----7.-| 
|5----5.
Composição de Anne Nurmi
Colaboração e revisão:
  • Hellektra
2.095 exibições
    • ½ Tom
    • A
    • Bb
    • B
    • C
    • Db
    • D
    • Eb
    • E
    • F
    • F#
    • G
    • Ab
  • Adicionar à lista

    0 comentários

    Ver todos os comentários

    Conseguiu tocar?

    1 Tocaram 0 Ainda não

    Grave um vídeo tocando Not Every Pain Hurts e nos envie!

    00:00 / 00:00
    Outros vídeos desta música
    Repetir Qualidade Automático
    Outros vídeos desta música
    00:00 / 00:00
    Automático

    Cifra Club Pro

    Aproveite o Cifra Club com benefícios exclusivos e sem anúncios
    Cifra Club Pro
    Aproveite o Cifra Club com benefícios exclusivos e sem anúncios
    OK