Cifra Club

Bad Romance

Lady Gaga

Tab de baixo: Principal
exibições 3.072
Oh-oh-oh-oh-oh-oh-oh-oh-oh-oh-oh-oh!
Caught in a bad romance
Oh-oh-oh-oh-oh-oh-oh-oh-oh-oh-oh-oh!
Caught in a bad romance

G|------------------------------------------------------|
D|------------------------------------------------------|
A|----5--7-----8--8--7--8--7--5--3--5--7--7--8--7--5--3-|
E|-8--------8-------------------------------------------|(2x)

Rah-rah-ah-ah-ah-ah!
Roma-roma-mamaa!
Ga-ga-ooh-la-la!
Want your bad romance

G|---------------------------------------------------------------------|
D|--------2--2--3--2--------2--2--3--2--------2--2--3--2---------------|
A|--0--0--------------0--0--------------0--0--------------3--3--0--3--3|
E|---------------------------------------------------------------------|

Rah-rah-ah-ah-ah-ah!
Roma-roma-mamaa!
Ga-ga-ooh-la-la!
Want your bad romance

G|---------------------------------------------------------------------|
D|--------2--2--3--2--------2--2--3--2--------2--2--3--2---------------|
A|--0--0--------------0--0--------------0--0--------------3--3--0--3--3|
E|---------------------------------------------------------------------|

I want your ugly
I want your disease
I want your everything
As long as it's free

G|---------------------------------------------------------------------------| 
D|---------------------------------------------------------------------------| 
A|---------------------------------------------------------------------------| 
E|---5--7--5--7--7--5--10--7--5--7--5--7--7--5--7--5--7--5--10--7--5--7--5---| 

I want your love
(Love-love-love I want your love)
 
G|---------------------------------------| 
D|---------------------------------------| 
A|-----------0----7--3--0-----------0----| 
E|--0--3--4----------------0--3--4-------| 

I want your drama
The touch of your hand
I want your leather-studded kiss in the sand

G|---------------------------------------------------------------------------| 
D|---------------------------------------------------------------------------| 
A|---------------------------------------------------------------------------| 
E|10--10--7--10--10--7--10--10--7--10--10--10--7--10--7--10--7--10--10--7--10|

I want your love
Love-love-love
I want your love

G|---------------------------------------| 
D|---------------------------------------| 
A|-----------0----7--3--0-----------0----| 
E|--0--3--4----------------0--3--4-------| 

You know that I want you
And you know that I need you
I want it bad, your bad romance

G|---------------------------------------------------------------------------| 
D|---------------------------------------------------------------------------| 
A|---------------------------------------------------------------------------| 
E|-x--x--x--x--x--x--x--x--x--x--x--x--x--x--x--x--x--x--x--x--x--x--x--x--x-| 

I want your love and
I want your revenge
You and me could write a bad romance
 
G|------------------------------------------------------------| 
D|--9--9--9--9--9--7--7--7--7--2--2--2--4--4--4--4--8--4--2--0| 
A|------------------------------------------------------------| 
E|------------------------------------------------------------| 

(Oh-oh-oh--oh-oh!)

G|---------------|
D|---------------|
A|----5--7-----8-|
E|-8--------8----|

I want your love and
All your lovers' revenge
You and me could write a bad romance

G|-------------------------------------------------------------| 
D|9--9--9--9--9--9--7--7--7--7--2--2--2--4--4--4--4--8--4--2--0| 
A|-------------------------------------------------------------| 
E|-------------------------------------------------------------|

Oh-oh-oh-oh-oh-oh-oh-oh-oh-oh-oh-oh!
Caught in a bad romance
Oh-oh-oh-oh-oh-oh-oh-oh-oh-oh-oh-oh!
Caught in a bad romance

G|------------------------------------------------------|
D|------------------------------------------------------|
A|----5--7-----8--8--7--8--7--5--3--5--7--7--8--7--5--3-|
E|-8--------8-------------------------------------------|(2x)

Rah-rah-ah-ah-ah-ah!
Roma-roma-mamaa!
Ga-ga-ooh-la-la!
Want your bad romance

G|---------------------------------------------------------------------|
D|--------2--2--3--2--------2--2--3--2--------2--2--3--2---------------|
A|--0--0--------------0--0--------------0--0--------------3--3--0--3--3|
E|---------------------------------------------------------------------|

I want your horror
I want your design
‘Cause you're a criminal
As long as your mine
 
G|---------------------------------------------------------------------------| 
D|---------------------------------------------------------------------------| 
A|---------------------------------------------------------------------------| 
E|---5--7--5--7--7--5--10--7--5--7--5--7--7--5--7--5--7--5--10--7--5--7--5---|

I want your love
(Love-love-love I want your love-uuhh)

G|---------------------------------------| 
D|---------------------------------------| 
A|-----------0----7--3--0-----------0----| 
E|--0--3--4----------------0--3--4-------| 

I want your psycho
Your vertigo stick
Want you in my rear window
Baby you're sick

G|---------------------------------------------------------------------------| 
D|---------------------------------------------------------------------------| 
A|---------------------------------------------------------------------------| 
E|10--10--7--10--10--7--10--10--7--10--10--10--7--10--7--10--7--10--10--7--10|

I want your love
(Love-love-love I want your love)

G|---------------------------------------| 
D|---------------------------------------| 
A|-----------0----7--3--0-----------0----| 
E|--0--3--4----------------0--3--4-------| 

You know that I want you
And you know that I need you
I want it bad, bad romance
 
G|---------------------------------------------------------------------------| 
D|---------------------------------------------------------------------------| 
A|---------------------------------------------------------------------------| 
E|-x--x--x--x--x--x--x--x--x--x--x--x--x--x--x--x--x--x--x--x--x--x--x--x--x-|

I want your love and
I want your revenge
You and me could write a bad romance

G|------------------------------------------------------------| 
D|--9--9--9--9--9--7--7--7--7--2--2--2--4--4--4--4--8--4--2--0| 
A|------------------------------------------------------------| 
E|------------------------------------------------------------| 

(Oh-oh-oh-oh-oh!)

G|---------------|
D|---------------|
A|----5--7-----8-|
E|-8--------8----|

I want your love and
All your lovers' revenge
You and me could write a bad romance

G|-------------------------------------------------------------| 
D|9--9--9--9--9--9--7--7--7--7--2--2--2--4--4--4--4--8--4--2--0| 
A|-------------------------------------------------------------| 
E|-------------------------------------------------------------|

Oh-oh-oh-oh-oh-oh-oh-oh-oh-oh-oh-oh!
Caught in a bad romance
Oh-oh-oh-oh-oh-oh-oh-oh-oh-oh-oh-oh!
Caught in a bad romance

G|------------------------------------------------------|
D|------------------------------------------------------|
A|----5--7-----8--8--7--8--7--5--3--5--7--7--8--7--5--3-|  (2x)
E|-8--------8-------------------------------------------|

Rah-rah-ah-ah-ah-ah!
Roma-roma-mamaa!
Ga-ga-ooh-la-la!
Want your bad romance

G|---------------------------------------------------------------------|
D|--------2--2--3--2--------2--2--3--2--------2--2--3--2---------------|
A|--0--0--------------0--0--------------0--0--------------3--3--0--3--3|
E|---------------------------------------------------------------------|

Rah-rah-ah-ah-ah-ah!
Roma-roma-mamaa!
Ga-ga-ooh-la-la!
Want your bad romance

G|---------------------------------------------------------------------|
D|--------2--2--3--2--------2--2--3--2--------2--2--3--2---------------|
A|--0--0--------------0--0--------------0--0--------------3--3--0--3--3|
E|---------------------------------------------------------------------|

Walk, walk fashion baby
Work it
Move that bitch crazy

G|---------------------------------------------------------------------------| 
D|---------------------------------------------------------------------------| 
A|---------------------------------------------------------------------------| 
E|-x--x--x--x--x--x--x--x--x--x--x--x--x--x--x--x--x--x--x--x--x--x--x--x--x-|

Walk, walk fashion baby
Work it
Move that bitch crazy
 
G|---------------------------------------------------------------------------| 
D|---------------------------------------------------------------------------| 
A|---------------------------------------------------------------------------| 
E|-x--x--x--x--x--x--x--x--x--x--x--x--x--x--x--x--x--x--x--x--x--x--x--x--x-|

Walk, walk fashion baby
Work it
Move that bitch crazy
 
G|---------------------------------------------------------------------------| 
D|---------------------------------------------------------------------------| 
A|---------------------------------------------------------------------------| 
E|-x--x--x--x--x--x--x--x--x--x--x--x--x--x--x--x--x--x--x--x--x--x--x--x--x-|

Walk, walk fashion baby
Work it
I'm a free bitch, baby

G|---------------------------------------------------------------------------| 
D|---------------------------------------------------------------------------| 
A|---------------------------------------------------------------------------| 
E|-x--x--x--x--x--x--x--x--x--x--x--x--x--x--x--x--x--x--x--x--x--x--x--x--x-|

I want your love and
I want your revenge
I want your love
I don't wanna be friends
 
G|---------------------------------------------------------------------------| 
D|---------------------------------------------------------------------------| 
A|---------------------------------------------------------------------------| 
E|-x--x--x--x--x--x--x--x--x--x--x--x--x--x--x--x--x--x--x--x--x--x--x--x--x-|

Je veux ton amour
Et je veux ta revanche
J'veux ton amour
I don't wanna be friends
Oh-oh-oh-oh-oooh!
I don't wanna be friends
(Caught in a bad romance)
I don't wanna be friends
Oh-oh-oh-oh-oooh!
Want your bad romance
(Caught in a bad romance)
Want your bad romance!

G|------------------------------------------------------|
D|------------------------------------------------------|
A|----5--7-----8--8--7--8--7--5--3--5--7--7--8--7--5--3-|
E|-8--------8-------------------------------------------| (2x)

I want your love and
I want your revenge
You and me could write a bad romance

G|------------------------------------------------------------| 
D|--9--9--9--9--9--7--7--7--7--2--2--2--4--4--4--4--8--4--2--0| 
A|------------------------------------------------------------| 
E|------------------------------------------------------------| 

Oh-oh-oh-oh-oooh!

G|---------------|
D|---------------|
A|----5--7-----8-|
E|-8--------8----|

I want your love and
All your lovers' revenge
You and me could write a bad romance

G|-------------------------------------------------------------| 
D|9--9--9--9--9--9--7--7--7--7--2--2--2--4--4--4--4--8--4--2--0| 
A|-------------------------------------------------------------| 
E|-------------------------------------------------------------|

Oh-oh-oh-oh-oooh-oh-oh-oooh-oh-oh-oh-oh!
Want your bad romance
(Caught in a bad romance)
Want your bad romance

G|------------------------------------------------------|
D|------------------------------------------------------|
A|----5--7-----8--8--7--8--7--5--3--5--7--7--8--7--5--3-|
E|-8--------8-------------------------------------------| (2x)

Oh-oh-oh-oh-oooh-oh-oh-oooh-oh-oh-oh-oh!
Want your bad romance
(Caught in a bad romance)

G|------------------------------------------------------|
D|------------------------------------------------------|
A|----5--7-----8--8--7--8--7--5--3--5--7--7--8--7--5--3-|
E|-8--------8-------------------------------------------| (2x)

Rah-rah-ah-ah-ah-ah!
Roma-roma-mamaa!
Ga-ga-ooh-la-la!
Want your bad romance 

G|---------------------------------------------------------------------|
D|--------2--2--3--2--------2--2--3--2--------2--2--3--2---------------|
A|--0--0--------------0--0--------------0--0--------------3--3--0--3--3|
E|---------------------------------------------------------------------|
Composição: Lady Gaga / RedOneColaboração e revisão:
  • Mansinho Jr.

0 comentários

    mostrar mais comentários

    Conseguiu tocar?

    2tocaram0ainda não

    Grave um vídeo tocando Bad Romance e mande pra gente!

    00:00 / 00:00
    outros vídeos desta música
    repetirqualidadeautomática
    Outro vídeos desta música
      00:00 / 00:00
      automática
      OK