Notificações Amigos pendentes

      Lamb of God

      Vigil

      1.861 exibições
      
      John Campbell
      
      
      
                          4x  E  E  E  E  E  E  E  E     E  E  E  E  E  E  E  E   
      G||--------|--------||--------------------------|--------------------------|
      D||*-------|-------*||--------------------------|--------------------------|
      A||*-------|-------*||--------------------------|--------------------------|
      D||--------|--------||--8--8--8--8--8--8--8--8--|--8--8--8--8--8--8--8--8--|
      
      
        E  E  E  E  E  E  E  E     E  E  E  E  E  E  E  E   
      --------------------------|--------------------------|
      --------------------------|--------------------------|
      --------------------------|--------------------------|
      --7--7--7--7--7--7--7--7--|--7--7--7--7--7--7--7--7--|
      
      
        E  E  E  E  E  E  E  E     E  E  E  E  E  E  E  E   
      --------------------------|--------------------------|
      --------------------------|--------------------------|
      --------------------------|--------------------------|
      --5--5--5--5--5--5--5--5--|--5--5--5--5--5--5--5--5--|
      
      
        E  E  E  E  E  E  E  E     E  E  E  E  E  E  E  E   
      --------------------------|--------------------------|
      --------------------------|--------------------------|
      --------------------------|--------------------------|
      --3--3--3--3--3--3--3--3--|--3--3--3--3--3--3--3--3--|
      
      
        E  E  E  E  E  E  E  E     E  E  E  E  E  E  E  E   
      --------------------------|--------------------------|
      --------------------------|--------------------------|
      --------------------------|--------------------------|
      --2--2--2--2--2--2--2--2--|--2--2--2--2--2--2--2--2--|
      
      
        E  E  E  E  E  E  E  E     E  E  E  E  E  E  E  E   
      --------------------------|--------------------------|
      --------------------------|--------------------------|
      --------------------------|--------------------------|
      --1--1--1--1--1--1--1--1--|--1--1--1--1--1--1--1--1--|
      
      
        E  E  E  E  E  E  E  E     E  E  E  E  E  E  E  E       Q    Q    E  Q    E   
      --------------------------|--------------------------||------------------------|
      --------------------------|--------------------------||*-----------------------|
      --------------------------|--------------------------||*-----------------------|
      --1--1--1--1--1--1--1--1--|--1--1--1--1--1--1--1--1--||---0----0----8--3----7--|
      
      
        Q    E  Q    E  E  E   4x   Q    Q    E  Q    E     Q    E  Q    E  E  E   4x
      -------------------------||------------------------|-------------------------||
      ------------------------*||*-----------------------|------------------------*||
      ------------------------*||*-----------------------|------------------------*||
      --2----6--1----5--1--0---||---0----0----8--3----7--|--2----6--1----5--1--0---||
      
      
        E  E  E  E  E  E  E  E     E  E  E  E  E  E  E  E     Q    Q    H          
      --------------------------|--------------------------|----------------------|
      --------------------------|--------------------------|----------------------|
      --------------------------|--------------------------|----------------------|
      --8--8--8--8--8--8--8--8--|--8--8--8--8--8--8--8--8--|--0----0----7~--------|
      
      
        Q    Q    H            E  E  E  E  E  E  E  E     E  E  E  E  E  E  E  E   
      ----------------------|--------------------------|--------------------------|
      ----------------------|--------------------------|--------------------------|
      ----------------------|--------------------------|--------------------------|
      --0----0----7~--------|--8--8--8--8--8--8--8--8--|--8--8--8--8--8--8--8--8--|
      
      
        Q    Q    H            Q    Q    H            E  E  E  E  E  E  E  E   
      ----------------------|----------------------|--------------------------|
      ----------------------|----------------------|--------------------------|
      ----------------------|----------------------|--------------------------|
      --0----0----7~--------|--0----0----7~--------|--8--8--8--8--8--8--8--8--|
      
      
        E  E  E  E  E  E  E  E     E  E  E  E  E  E  E  E   
      --------------------------|--------------------------|
      --------------------------|--------------------------|
      --------------------------|--------------------------|
      --8--8--8--8--8--8--8--8--|--7--7--7--7--7--7--7--7--|
      
      
        E  E  E  E  E  E  E  E     E  E  E  E  E  E  E  E   
      --------------------------|--------------------------|
      --------------------------|--------------------------|
      --------------------------|--------------------------|
      --7--7--7--7--7--7--7--7--|--5--5--5--5--5--5--5--5--|
      
      
        E  E  E  E  E  E  E  E     E  E  E  E  E  E  E  E   
      --------------------------|--------------------------|
      --------------------------|--------------------------|
      --------------------------|--------------------------|
      --5--5--5--5--5--5--5--5--|--3--3--3--3--3--3--3--3--|
      
      
        E  E  E  E  E  E  E  E       Q    Q    E  E  Q       E  Q    E  E  E  E  E   
      --------------------------||------------------------|-------------------------|
      --------------------------||*-----------------------|-------------------------|
      --------------------------||*-----------------------|-------------------------|
      --3--3--3--3--3--3--3--3--||---0----0----3--5--6----|--L--0----0--3--5--6--1--|
      
      
        Q    Q    E  E  Q       E  E  S S S S S S S S Q       
      -----------------------|------------------------------||
      -----------------------|-----------------------------*||
      -----------------------|-----------------------------*||
      --0----0----3--5--6----|--L--0--1-1-1---2---1---5-----||
      
      
         Q    Q    E  E  Q       E  Q    E  E  E  E  E     Q    Q    E  E  Q     
      ------------------------|-------------------------|-----------------------|
      *-----------------------|-------------------------|-----------------------|
      *-----------------------|-------------------------|-----------------------|
      ---0----0----3--5--6----|--L--0----0--3--5--6--1--|--0----0----3--5--6----|
      
      
        E  E  S S S S S S S S Q         W                   W                 
      ------------------------------||-------------------|-------------------|
      -----------------------------*||-------------------|-------------------|
      -----------------------------*||-------------------|-------------------|
      --L--0--1-1-1---2---1---5-----||--0----------------|--L----------------|
      
      
        W                   H                                                   
      -------------------|-----------||--------------------|-------------------|
      -------------------|-----------||*-------------------|-------------------|
      -------------------|-----------||*-------------------|-------------------|
      --L----------------|--L--------||--------------------|-------------------|
      
      
                            H        Q    E  E     
      -------------------|-----------------------||
      -------------------|----------------------*||
      -------------------|----------------------*||
      -------------------|----------------5--6---||
      
      
         S S S S S S S S S S S S S S S S    S S S S S S S S S S S S S S S S  
      -----------------------------------|----------------------------------|
      *----------------------------------|----------------------------------|
      *----------------------------------|----------------------------------|
      ---3-0-0-1-0-0-3-0-0-1-0-0-6-5-3-0-|--3-0-0-1-0-0-3-0-6-5-3-5-3-1-0-1-|
      
      
        S S S S S S S S S S S S S S S S    S S S S S S S S S S S S E  E     
      ----------------------------------|---------------------------------||
      ----------------------------------|--------------------------------*||
      ----------------------------------|--------------------------------*||
      --3-0-0-1-0-0-3-0-0-1-0-0-6-5-3-0-|--3-0-0-1-0-0-3-0-6-5-3-0-5--6---||
      
      
        S S S S E  S S S S E  S S S S E  S S S S S S S S S S S S S S  
      ---------------------------------------------------------------|
      ---------------------------------------------------------------|
      ---------------------------------------------------------------|
      --0-0-0-0----0-0-0-0----0-0-0-0----0-0-0-0-0-0-0-0-0-5-0-5-6-3-|
      
      
          S S S S E  S S S S E  S S S S E  S S S S S S S S S S S S S S    
      |-----------------------------------------------------------------||
      |*---------------------------------------------------------------*||
      |*---------------------------------------------------------------*||
      |---0-0-0-0----0-0-0-0----0-0-0-0----0-0-0-0-0-0-0-0-0-5-0-5-6-3--||
      
      
         S S S E.  S S S E.  S S S E.  S S S S S S S S S S S S S S  4x
      --------------------------------------------------------------||
      *------------------------------------------------------------*||
      *------------------------------------------------------------*||
      ---2-2-2-2---3-3-3-3---2-2-2-2---2-2-2-2-2-2-2-2-2-2-2-2-2-2--||
      
      
         S S S S S S S S S S S S S S S S    S S S S S S S S S S S S S S S S  6x
      -----------------------------------|-----------------------------------||
      *----------------------------------|----------------------------------*||
      *----------------------------------|----------------------------------*||
      ---0-0-0-0-0-0-0-0-0-0-0-0-0-0-0-0-|--0-0-0-0-0-0-0-0-0-0-0-0-0-0-0-0--||
      
      
         S S S S S S S S S S S S S S S S    S S S S S S S S S S S S S S S S  
      -----------------------------------|----------------------------------|
      *----------------------------------|----------------------------------|
      *----------------------------------|----------------------------------|
      ---0-0-0-0-0-0-0-0-0-0-0-0-0-0-0-0-|--0-0-0-0-0-0-0-0-0-0-0-0-0-0-0-0-|
      
      
        S S S S S S S S S S S S S S S S    S S S S S S S S S S S S S S S S    
      ----------------------------------|-----------------------------------||
      ----------------------------------|----------------------------------*||
      ----------------------------------|----------------------------------*||
      --0-0-0-0-0-0-0-0-0-0-0-0-0-0-0-0-|--0-0-0-0-0-0-0-0-0-0-0-0-0-0-0-0--||
      
      
         S S S E.  S S S E.  S S S E.  S S S S S S S S S S S S S S  4x
      --------------------------------------------------------------||
      *------------------------------------------------------------*||
      *------------------------------------------------------------*||
      ---2-2-2-2---3-3-3-3---2-2-2-2---2-2-2-2-2-2-2-2-2-2-2-2-2-2--||
      
      
         S S S S S S S S S S S S S S S S S S E  S S  9x                    
      -----------------------------------------------||-------------------|
      *---------------------------------------------*||-------------------|
      *---------------------------------------------*||-------------------|
      ---0-0-0-0---0-0-0-0---0-0-0-0---0-0-0-0--0-0--||-------------------|
      
      
      -------------------||
      -------------------||
      -------------------||
      -------------------||
      
      
      
      
      Duration Legend
      ---------------
      W - whole
      H - half
      Q - quarter
      E - 8th
      S - 16th
      T - 32nd
      X - 64th
      . - note dotted
      
      
      Tablature Legend
      ----------------
      L - tied note
      x - dead note
      (n) - ghost note
      > - accentuded note
      NH - natural harmonic
      AH - artificial harmonic
      TH - tapped harmonic
      SH - semi harmonic
      PH - pitch harmonic
      h - hammer on
      p - pull off
      b - bend
      br - bendRelease
      pb - preBend
      pbr - preBendRelease
      brb - bendReleaseBend
      \n/ - tremolo bar dip
      \n - tremolo bar dive
      -/n - tremolo bar Release up
      /n\ - tremolo bar inverted dip
      /n - tremolo bar return
      -\n - tremolo bar Release down
      S - shift slide
      s - legato slide
      / -  slide into from below or out of upwards
      \ -  slide into from above or out of downwards
      ~ - vibrato
      W - wide vibrato
      tr - trill
      TP - tremolo picking
      T - tapping
      S - slap
      P - pop
      < - fade in
      ^ - brush up
      v - brush down
      
        Composição: Lamb of God

        Comentários 0

        140 .
        140 cancelar

        conseguiu tocar?

        covers

        Grave um vídeo tocando Vigil e mande pra gente!

        Ex.: http://www.youtube.com/watch?v=0IvSvIwGdwk
        ver covers de outras músicas »
        0:00 / 0:00

        Capítulos

          1 versão de baixo exibições contribuição e correção
          play/pausefechar subir/descer velocidade
          6ª corda E5ª corda A4ª corda D3ª corda G2ª corda B1ª corda E
            acordes
            publicidade
            fechar
            ok