Cifra Club

Aprenda

Love By Grace

Lara Fabian

Cifra: Principal (violão e guitarra)
tom: F#
(intro 2x) D#m C# B  

E|--14--16--18--13--------18--11--------11--13---14--13--11------14--16--18--13------18--11---
B|------------------------------------------------------------14------------------------------
G|--------------------------------------------------------------------------------------------
D|--------------------------------------------------------------------------------------------
A|--------------------------------------------------------------------------------------------
E|--------------------------------------------------------------------------------------------

B7+                           C#            F#
I remember the rain on the roof that morning
             C#/F         D#m          D#m7/C#
And all the things that I wanted to say
B7+                           C#
The angry words that came from nowhere
               F#
without warning
                C#/F      D#m        D#m7/C#
That stole the moment and sent me away
B9                               C#           B9
And you standing there at the doorway crying
      B9/G#             (C#7)
And me wondering if I'd ever be back

        F#
I said I didn't come here to leave you
    B7+
I didn't come here to lose
  A#m7                              B9/G#
I didn't come here believing I would ever be
      C#9
away from you
  F#
I didn't come here to find out
B7+                       B9/G#
There's a weakness in my faith
 G#m                       F#/A#         B9
I was brought here by the power of love
           D#m C# B
Love by grace

(solo)

E|--13--15--17--17--------17---------------12--13---12---10---8---13---15----17--------17------
B|---------------------------17---------15---------------------------------------17--------15--
G|---------------------------------------------------------------------------------------------
D|--12-------------------------------15--------------------------------------------------------
A|------------------15--17---------------------------------------------------------------------
E|-------------------------------18------------------------------------------------------------

 B7+                     C#                F#
And I remeber the road just went on forever
               C#/F         D#m           D#m7/C#
Just couldn't seem to turn that car around
B7+                         C#                   F#
'Till in the distance like a long lost treasure
                       D#m                D#m7/C#
A phone booth that just could not be found
B9                              C#
And you standing there at the doorway waiting
          B9/G#       (C#7)
And the moment when we laid back down
          F#
I said I didn't come here to leave you
 B7+
I didn't come here to lose
    A#m                              B9/G#
I didn't come here believing I would ever be
      C#
away from you
  F#
I didn't come here to find out
             B7+
There's a weakness in my faith
   G#m            F#/A#          B9  C#9    
I was brought here by the power of love

D#m
That was just a moment in time
     B9                F#/A#
And one we'll never forget
  G#m             D#m
One we can leave behind
  B9/G#
'Cause when there was doubt
        B9            F# B7+
You'll remember I said
        A#m                            G#m     C#9
I didn't come here believing I would ever be away from you

 A
I didn't come here to find out
 D                        Bm
There's a weakness in my fait
Bm7                       A/C#    D9       E/G#
I was brought here by the power of love
 Bm                          A/C#   D9  E9
I was brought here by the power of love
            F#m7 E9 D               A
Love by grace          love by grace

(solo intro)
Composição de Dave Loggins / Wayne Tester
154.608 exibições
    • ½ Tom
    • A
    • Bb
    • B
    • C
    • Db
    • D
    • Eb
    • E
    • F
    • F#
    • G
    • Ab
  • Adicionar à lista

    0 comentários

    Ver todos os comentários

    Conseguiu tocar?

    8 Tocaram 1 Ainda não

    Grave um vídeo tocando Love By Grace e nos envie!

    00:00 / 00:00
    Outros vídeos desta música
    Repetir Qualidade Automático
    Outros vídeos desta música
    00:00 / 00:00
    Automático

    Cifra Club Pro

    Aproveite o Cifra Club com benefícios exclusivos e sem anúncios
    Cifra Club Pro
    Aproveite o Cifra Club com benefícios exclusivos e sem anúncios
    OK