Cifra Club

Note To Self City Park 2pm

Larger Than Life

Cifra: Principal (violão e guitarra)
tom: D
*

Album: If Tomorrow Never Came
Tabbed By: *

if you know how to play the acoustic intro and the second guitar please put
up a correction and ill fix mine up and ill be sure to give you credit

x = palm mute
~ = let it ring
/ = slide
__ = ignore these things, they're just necessary for spacing 

e|-------------------------------------|---------------------------------------------|
B|-------------------------------------|---------------------------------------------|
G|----------------------------77777777-|-------------------------77777777---1-1-1-1--|
D|-44444444--6666666--777777--77777777-|-44444444--66666--22222--77777777----2-2-2-2-|
A|-44444444--6666666--777777--55555555-|-44444444--66666--22222--55555555------------|
E|-22222222--4444444--555555-----------|-22222222--44444--00000----------------------| 

verse - "Got it writen on my hand.....!
." or "must called a thousand times..."
e|---------------------------------------------------------------------------|
B|---------------------------------------------------------------------------|
G|-----------------------------------7777777---------------------------------|
D|-77777777--777777777--44444--2222--7777777---------------------------------|x2
A|-77777777--777777777--44444--2222--5555555---------------------------------|
E|-55555555--444444444--22222--0000------------------------------------------| 
___xxxxxxxx__xxxxxxxxx__xxxxx__xxxx 

pre chorus - " i await, a time when we feel safe...." 0r "still await...."
e|----------------------------------------------------------------------------|
B|----------------------------------------------------------------------------|
G|-----------44444444--77777777------------------44444444--77777777--9999x-9--|
D|-44444444--44444444--77777777---7x-7x--444444--44444444--77777777--9999x-9--|
A|-44444444--22222222--55555555---7x-7x--444444--22222222--55555555--7777x-7--|
E|-22222222-----------------------5x-4x--222222-------------------------------|

chorus - " Dishearted let'd go on (im gona find a way)"
e|-------------------------------|---------------------------------|
B|-------------------------------|---------------------------------|
G|------------9x-77777777----7/9-|-----------99-77777777-77x-99x---|
D|-77777777---9x-77777777----7/9-|-77777777--99-77777777-77x-99x-7-|x2
A|-77777777---7x-55555555----5/7-|-77777777--77-55555555-55x-77x-7-|
E|-55555555----------------------|-55555555----------------------5-|

outro - 
e|---------------------------------|
B|---------------------------------|
G|-----7~------7~------7~------7~--|
D|-7~--7~--7~--7~--7~--7~--7~--7~--|
A|-7~--5~--7~--5~--7~--5~--7~--5~--|
E|-5~------5~------5~------5~------| 

e|-----------------------------------|
B|-----------------------------------|
G|------------------777-777-777-777x-|
D|--777-777-777-777-777-777-777-777x-| x3
A|--777-777-777-777-555-555-555-555x-|
E|--555-555-555-555------------------| 
____xxx_xxx_xxx_xxx_xxx_xxx_xxx_xxx 

e|------------------------------------------------|
B|------------------------------------------------|
G|-----------77777777/9-9-------------------------|
D|-77777777--77777777/9-9-7x----------------------|
A|-77777777--55555555/7-9-7x----------------------|
E|-55555555---------------5x----------------------| 
___xxxx
Compositor não encontrado.
230 exibições
    • ½ Tom
    • A
    • Bb
    • B
    • C
    • Db
    • D
    • Eb
    • E
    • F
    • F#
    • G
    • Ab
  • Adicionar à lista

    0 comentários

    Ver todos os comentários

    Conseguiu tocar?

    0 Tocaram 0 Ainda não

    Grave um vídeo tocando Note To Self City Park 2pm e nos envie!

    00:00 / 00:00
    Outros vídeos desta música
    Repetir Qualidade Automático
    Outros vídeos desta música
    00:00 / 00:00
    Automático

    Cifra Club Pro

    Aproveite o Cifra Club com benefícios exclusivos e sem anúncios
    Cifra Club Pro
    Aproveite o Cifra Club com benefícios exclusivos e sem anúncios
    OK