Cifra Club

Festa No Apê

Latino

Cifra: Principal (violão e guitarra)
Tom: C
Intro: (Am F C G) 2x {Solo de Teclado}

Solo:
               Am            F              C          G
E|--------------------------------------------------------|
B|----------------------------------------------5-3-------|
G|------2--4--5--5--5--5-4-2-5-2------2--4--5--5-----5----|
D|---5---------------------------5--5-------------------5-|
A|--------------------------------------------------------|
E|--------------------------------------------------------|

               Am            F              C          G
E|------------------------------------------------------| |------|
B|----------------------------------------------5-3-----| |5-3---| |
G|------2--4--5--5--5-5-4-2-5-2------2--4--5--5-----5---| |----5-| |3x
D|---5--------------------------5--5--------------------| |------| |
A|------------------------------------------------------| |------| |
E|------------------------------------------------------| |------| /


        F                C
 Hoje é festa lá no meu apê
          G
 Pode aparecer
             Am
 Vai rolar bundalelê
        F                C
 Hoje é festa lá no meu apê
      G
 Tem birita
       Am
 Até  amanhecer

      F
Chega aí
        C
Pode entrar
         G         Am
Quem tá aqui tá em casa
      F
Chega aí
        C
Pode entrar
         G         Am
Quem tá aqui tá em casa

F       C
Olá, Prazer!
    G       Am
A noite hum... é nossa.
   F          C                 G            Am
Garçom, por favor venha aqui e sirva bem a visita.

    F
Tá Bom
      C
Tá é Bom
 G               Am
Aqui ninguém fica só,
      F            C
Entra aí, e um drink
         G              Am
Porquê a noite é uma criança.


        F                C
Hoje é festa lá no meu apê
          G
Pode aparecer
             Am
Vai rolar bundalelê
        F                C
Hoje é festa lá no meu apê
      G
Tem birita
       Am
Até  amanhecer    (2x)


  F         C      G      Am
Tesão, Sedução, líbido no ar
       F          C           G       Am
No meu quarto tem gente até fazendo orgia

   F
Tá Bom
      C
Tá é Bom
        G
Tudo é festa
    Am           F
Pegação  vou zoar
        C
o mulherengo
     G              Am
e a chapa vai esquentar


       F                C
Hoje é festa lá no meu apê
          G
Pode aparecer
             Am
Vai rolar bundalelê
        F                C
Hoje é festa lá no meu apê
      G
Tem birita
       Am
Até  amanhecer
(2x)

     F
Chega aí
        C
Pode entrar
         G         Am
Quem tá aqui tá em casa
      F
Chega aí
        C
Pode entrar
         G         Am
Quem tá aqui tá em casa
      F
Chega aí
        C
Pode entrar
         G         Am
Quem tá aqui tá em casa.


     Solo de Teclado


        F                C
Hoje é festa lá no meu apê
          G
Pode aparecer
             Am
Vai rolar bundalelê
        F                C
Hoje é festa lá no meu apê
      G
Tem birita
       Am
Até  amanhecer
(3x)
exibições 373.016
Acordes para:

    0 comentários

    mostrar mais comentários

    Conseguiu tocar?

    9 tocaram 0 ainda não

    Grave um vídeo tocando Festa No Apê e mande pra gente!

    00:00 / 00:00
    outros vídeos desta música
    repetir qualidade Automático
    Outros vídeos desta música
    00:00 / 00:00
    Automático
    OK