Cifra Club

Aprenda

Cobaia (part. Maiara e Maraisa)

Lauana Prado

Cifra: Aula-pocket (violão e guitarra)
Tom: G
[INTRO]

Em  C  D
Em  C  D

[TAB INTRO]

Parte 1 de 3
E|-------5/7-5-------/3-3\2-2-2-2\0--------------------|
B|-3-3-3-------8-7-5-/5-5\3-3-3-3\1-1-0----------------|
G|--------------------------------------2--------------|
D|-----------------------------------------------------|
A|-----------------------------------------------------|
E|-----------------------------------------------------|

Parte 2 de 3
E|-------5/7-5-------/3-3\2-2-2-2\0--------------------|
B|-3-3-3-------8-7-5-/5-5\3-3-3-3\1-1-0----------------|
G|--------------------------------------2--------------|
D|-----------------------------------------------------|
A|-----------------------------------------------------|
E|-----------------------------------------------------|

Parte 3 de 3
E|-----------------------------------------------------|
B|-3--3/5--5--5--5/7-----------------------------------|
G|-----------------------------------------------------|
D|-----------------------------------------------------|
A|-----------------------------------------------------|
E|-----------------------------------------------------|


[Primeira parte]

G                           Em
  Você tem, um emprego pra mim? Olha aí
                 D
Qualquer coisa que
     C                      D
Que me mantenha perto de você 
 
Posso fazer
G
  Cafuné no cabelo
                       Em
Vigio o seu sono, sei lá

Até provo o seu beijo
                             D
Pra ver se a barba vai me arranhar
    C                         D
Eu posso ser fiscal do seu olhar

Nem precisa pagar

[Pré-refrão]

Am                 C
   Pego sua toalha
                         G    D
Pra quando você sair do banho
Am                    C
   Posso ser a cobaia
                             G    D
Pra quando você fizer seus planos

[Refrão]

                      Em
Quando for beijar alguém
 C                   D
Testa esse beijo em mim
                    Em
Antes de amar, meu bem
 C                  D
Testa esse amor em mim
                      Em
Quando for beijar alguém 
 C                   D
Testa esse beijo em mim
                    Em
Antes de amar, meu bem

 C                  D
Testa esse amor em mim


                            C
Me prenda, me abraça e não saia
  G                       D
Aceito esse emprego de cobaia
                            C 
Me prenda, me abraça e não saia
  G                       D
Aceito esse emprego de cobaia


[TAB SOLO]

Parte 1 de 3
E|-------5/7-5-------/3-3\2-2-2-2\0--------------------|
B|-3-3-3-------8-7-5-/5-5\3-3-3-3\1-1-0----------------|
G|--------------------------------------2--------------|
D|-----------------------------------------------------|
A|-----------------------------------------------------|
E|-----------------------------------------------------|

Parte 3 de 3
E|-------5/7-5-------/3-3\2-2-2-2\0--------------------|
B|-3-3-3-------8-7-5-/5-5\3-3-3-3\1-1-0----------------|
G|--------------------------------------2--------------|
D|-----------------------------------------------------|
A|-----------------------------------------------------|
E|-----------------------------------------------------|

Parte 3 de 3
E|-----------------------------------------------------|
B|-3--3/5--5--5--5/7-----------------------------------|
G|-----------------------------------------------------|
D|-----------------------------------------------------|
A|-----------------------------------------------------|
E|-----------------------------------------------------|


[Pré-refrão]

Am                 C
   Pego sua toalha
                         G    D
Pra quando você sair do banho
Am                    C
   Posso ser a cobaia
                             G    D
Pra quando você fizer seus planos

[Refrão]

                      Em
Quando for beijar alguém
 C                   D
Testa esse beijo em mim
                    Em
Antes de amar, meu bem
 C                  D
Testa esse amor em mim
                      Em
Quando for beijar alguém 
 C                   D
Testa esse beijo em mim
                    Em
Antes de amar, meu bem
 C                  D
Testa esse amor em mim


                           C
Me prenda, me abraça e não saia
  G                       D
Aceito esse emprego de cobaia
                            C 
Me prenda, me abraça e não saia
  G                       D
Aceito esse emprego de cobaia

(Solo final)  Em  C  D  Em

[TAB SOLO FINAL]

E|-------5/7-5-------/3-3\2-2-2-2\0--------------------|
B|-3-3-3-------8-7-5-/5-5\3-3-3-3\1-1-0----------------|
G|--------------------------------------2--------------|
D|-----------------------------------------------------|
A|-----------------------------------------------------|
E|-----------------------------------------------------|
Composição de Bruno Caliman
Colaboração e revisão:
  • Caico Antunes
5.896 exibições
  • Simplificar cifra
    • ½ Tom
    • A
    • Bb
    • B
    • C
    • Db
    • D
    • Eb
    • E
    • F
    • F#
    • G
    • Ab
  • Adicionar à lista

    0 comentários

    Mostrar mais comentários

    Conseguiu tocar?

    4 Tocaram 2 Ainda não

    Grave um vídeo tocando Cobaia (part. Maiara e Maraisa) e mande pra gente!

    00:00 / 00:00
    outros vídeos desta música
    repetir qualidade Automático
    Outros vídeos desta música
    00:00 / 00:00
    Automático
    Capítulos
    • Abertura
    • Dicas da Música
    • Acordes da Música
    • Ritmo 1
    • Ritmo 2
    • Tocando a Música
    • Ensinando Solo
    • Encerramento
    OK