Cifra Club

Volveré junto a ti

Laura Pausini

Cifra: Principal (violão e guitarra)
tom: Fm
Intro:
   Cm       Bb       Ab   Gm      Cm        Bb       Ab      Gm     Cm
E|-------|--------|----|-------|-----------|--------|-------|---------|
B|-------|--------|----|-------|-----------|--------|-------|---------|
G|-5-5-5h| 7-7-7/8-|8-8-|-8-7-3-|3h5--5-5-5h|7-7-7/8-|8--8-8-|8-7-3-3h5
D|-------|--------|----|-------|---5-------|--------|-------|---------|
A|-------|--------|----|-------|-----------|--------|-------|---------|
E|-------|--------|----|-------|-----------|--------|-------|---------|

Cm     Bb         Ab       Gm            Cm
  Volveré junto a ti, a pesar de mi orgullo
   Cm       Bb     Ab      Gm     Cm
E|-------|--------|-------|-----|-----------|
B|-------|--------|-------|-----|-----------|
G|-5-5-5h| 7-7-7/8-|8-7h8p-|7-5-3|3h5--------
D|-------|--------|-------|-----|-----------|
A|-------|--------|-------|-----|-----------|
E|-------|--------|-------|-----|-----------|

Cm     Bb         Ab       Gm        Cm  Bb Ab Gm
  Volveré porque sé que no puedo elegir

Ab
  Recordando ahora días de otra latitud
Cm
  Frecuentando sitios donde tú estarás
Ab                              Gm     G7
  Repitiendo gestos y palabras que perdimos

Cm     Bb         Ab         Gm       Ab
  Volveré junto a ti, como cuando me fui

                Gm                   C
  Tú dime si estás dispuesto a intentar
               Dm
  de nuevo conmigo un largo camino
              Gm               C
  si aún eres tú, si ahora soy yo
                Dm
  como una canción sincera y nueva

               Gm                  C
  Tú dime si está, si puedo encontrar
             F       C    Dm
  nuestro pasado en tu mirar
     Gm   Bbm
  oh no, tu mirar

Dm  C  Bb  Am

   Dm       C       Bb        C     Dm
E|-------|---------|---------|-----|-----------|
B|-------|---------|---------|-----|-----------|
G|-7-7-7h| 9-9-9/10-|10-9h10p-|9-7-5|5h7--------
D|-------|---------|---------|-----|-----------|
A|-------|---------|---------|-----|-----------|
E|-------|---------|---------|-----|-----------|

Dm      C         Bb            C          Dm
  Volveré junto a ti, pues te quise y te quiero
        C         Bb          C              Dm
  Volveré junto a ti, para siempre hasta el fin
        C           Bb         C       Dm
  Volveré porque en ti queda parte de mí

E|-----------------------------10-12-13-13p12-12p10-8h10p8------------|
B|---------------------------10---------------------------12-12p10h12-|
G|-------------------------------------------------------------------|
D|--------------------------------------------------------------------|
A|--------------------------------------------------------------------|
E|--------------------------------------------------------------------|

Bb
  Al respirar el aire limpio de intranquilidad
Dm
  Al reencontrar tus manos fuertes otra vez
Bb
  No sentirme siempre frágil como ayer
A
  no, no

E|-------------------------|
B|----------6p5------------|
G|-------------7p6---------|
D|----------------8p7------|
A|-------------------------|
E|-------------------------|

                Gm                   C
  Tú dime si estás dispuesto a intentar
              Dm
  de nuevo conmigo un largo camino
              Gm               C
  si aún eres tú, si ahora soy yo
                Dm
  Aquellas canciones tuyas nuestras
               Gm                  C
  Tú dime si está, si puedo encontrar
             F       C    Dm
  nuestro pasado en tu mirar
        Gm   C
  oh , no, ahuu...

             Bbm          D#          Fm                       Bbm
E|--6h8-6---| 6---6h8-6---|6--6h8-6---|6---6--|-----|--6h8-6---|-6-
B|-6------9-|---6------9-|--6------9-|--9---9|-8-9-|-6------9-|---|
G|----------|------------|-----------|-------|-----|----------|---|
D|----------|------------|-----------|-------|-----|----------|---|
A|----------|------------|-----------|-------|-----|----------|---|
E|----------|------------|-----------|-------|-----|----------|---|
                                                          uhnohunohuno
              D#
Si ahora eres tú,
E|--8-8-8-8p6--|
B|-6-----------|
G|-------------|
         Fm
Una canción sincera y nueva,
             Bbm                 D#
Tú dime si está, si puedo encontrar
           Ab     D#    Fm
Nuestro pasado en tu mirar
   Bbm  Dbm
Oh no,  tu mirar.
Fm        D#      Db        Cm         Fm
  Ya un puedo elegir, volveré junto a ti.
00:00 / 00:00
Outros vídeos desta música
Repetir
Outros vídeos desta música
Composição de Cheope / Daniel Vuletic / Ignacio Ballesteros / Laura Pausini
167 exibições
    • ½ Tom
    • Am
    • Bbm
    • Bm
    • Cm
    • C#m
    • Dm
    • Ebm
    • Em
    • Fm
    • F#m
    • Gm
    • G#m
  • Adicionar à lista

    0 comentários

    Ver todos os comentários

    Conseguiu tocar?

    0 Tocaram 0 Ainda não

    Grave um vídeo tocando Volveré junto a ti e nos envie!

    Entre para oCifra Club PRO

    Tenha acesso a benefícios exclusivos no App e no Site

    • Chega de anúncios

    • Prioridade de compra em lançamentos

    • Mais recursos no app do Afinador

    • Atendimento Prioritário

    • Descontos nos produtos Cifra Club

    • Ajude a produzir mais conteúdo

    00:00 / 00:00

    Cifra Club Pro

    Aproveite o Cifra Club com benefícios exclusivos e sem anúncios
    Cifra Club Pro
    Aproveite o Cifra Club com benefícios exclusivos e sem anúncios
    OK