Cifra Club

Meu Mestre

Irmão Lázaro

Cifra: Ao-vivo (violão e guitarra)
tom: Bm
[Intro]

E|------------------------------------------|
B|------7-8-10/12-10~-----------------------|
G|-/9~-----------------7-7------------------|
D|------------------------------------------|
A|------------------------------------------|
E|------------------------------------------|

E|--------10-12-14-14-15-15-----------------|
B|-/13~-------------------------------------|
G|------------------------------------------|
D|------------------------------------------|
A|------------------------------------------|
E|------------------------------------------|

E|-/15~---17b18-15-13~----------------------|
B|-----------------------15-13-15~----------|
G|------------------------------------------|
D|------------------------------------------|
A|------------------------------------------|
E|------------------------------------------|

( D  A  Em  D/F#  G  Bm  A )

[Refrão]

D                          D4  D
  A minha vida é do Mestre
                      A
Meu coração é do meu Mestre
                    Em    D/F#
O meu caminho é do Mestre
G                        Bm    A
  Minha esperança é meu Mestre 
D                          D4  D
  A minha vida é do Mestre
                      A
Meu coração é do meu Mestre
                    Em    D/F#
O meu caminho é do Mestre
G                        Bm    A
  Minha esperança é meu Mestre

[Primeira Parte]
  
D                  A
  À Deus eu entreguei
                Em
O barco do meu ser
                  Bm  A
E entrei no mar afora
D                    A
  Pra longe eu naveguei
                 Em
Não vejo mais o cais
               Bm  A
Só Deus e eu agora

[Refrão]

D                          D4  D
  A minha vida é do Mestre
                      A
Meu coração é do meu Mestre
                    Em    D/F#
O meu caminho é do Mestre
G                        Bm    A
  Minha esperança é meu Mestre

[Segunda Parte]

D                A
  Na solidão da lida
              Em
Eu pude perceber
                 Bm  A
O quanto Deus me ama
D                   A
  As ondas grandes vêm
                  Em
Tentando me arrastar
                 Bm   A 
Pra longe da presença   dEle

[Refrão]

D                          D4  D
  A minha vida é do Mestre
                      A
Meu coração é do meu Mestre
                    Em    D/F#
O meu caminho é do Mestre
G                        Bm    A  D  A
  Minha esperança é meu Mestre

[Solo] D  A/C#  A  
       Em  D/F#  G  D  A  D

[Segunda Parte]

D                A
  Na solidão da lida
              Em
Eu pude perceber
                 Bm  A
O quanto Deus me ama
D                   A
  As ondas grandes vêm
                  Em
Tentando me arrastar
                 Bm   A 
Pra longe da presença   dEle

[Refrão]

D                          D4  D
  A minha vida é do Mestre
                      A
Meu coração é do meu Mestre
                    Em    D/F#
O meu caminho é do Mestre
G                        Bm    A  D
  Minha esperança é meu Mestre
00:00 / 00:00
Outros vídeos desta música
Repetir
Outros vídeos desta música
Composição de Marisa Gonzaga
782.469 exibições
  • Simplificar cifra
    • ½ Tom
    • Am
    • Bbm
    • Bm
    • Cm
    • C#m
    • Dm
    • Ebm
    • Em
    • Fm
    • F#m
    • Gm
    • G#m
  • Adicionar à lista

    0 comentários

    Ver todos os comentários
    00:00 / 00:00
    Capítulos
    • Apresentação
    • Acordes da Música
    • Ritmo Principal
    • Variação do Ritmo
    • Tocando Trecho da Música
    • Encerramento

    Cifra Club Pro

    Aproveite o Cifra Club com benefícios exclusivos e sem anúncios
    Cifra Club Pro
    Aproveite o Cifra Club com benefícios exclusivos e sem anúncios
    OK