Meu Mestre

Irmão Lázaro

Composição de: Lázaro
tom: Bm
[Intro]

E|-------------------------------------------------------------------|
B|------------------------------------------10-11-----------3/15~~~--|
G|---------------------------------------12-------12-10-7-5----------|
D|---------------------12-14-16-16-17-17-----------------------------|
A|----9-10-14-12-5-5-15----------------------------------------------|
E|--0----------------------------------------------------------------|

D
A minha vida é do Mestre
                     A
Meu coração é do meu Mestre
                   Em
O meu caminho é do Mestre
G
Minha esperança é meu Mestre 
D
A minha vida é do Mestre
                     A
Meu coração é do meu Mestre
                   Em
O meu caminho é do Mestre
G
Minha esperança é meu Mestre

D                 A
À Deus eu entreguei
                  Em
O barco do meu ser
                     Bm  A
E entrei no mar  afora
D                   A
Pra longe eu naveguei
                    Em
Não vejo mais o cais
                 Bm   A
Só Deus e eu agora

D
A minha vida é do Mestre
                     A
Meu coração é do meu Mestre
                   Em
O meu caminho é do Mestre
G                     Bm
Minha esperança é meu Mestre

D                     A
Na solidão da vida
                Em
Eu pude perceber
                   Bm                      A
O quanto Deus me ama (Deus me ama, ah)
D                   A
As ondas grandes vêm
          Em
Tentando me arrastar
       Bm  A    D
Pra longe da presença Dele

 [Solo]

     D  A  Em  F#  D  G  D
E|-----------------------------------------------------------|
B|------------------------------------------------10---------|
G|-----7---9---11b---9---7-------7---7-9-9-7-9/11----9-7---7-|
D|--7-----------------------7--9---9---------------------9---|
A|-----------------------------------------------------------|
E|-----------------------------------------------------------|

E|--------------10--10---10-10-10--9-9--7-7------------------|
B|--------10-12---12------------------------10-10------------|
G|--7-9-11---------------------------------------------------|
D|-----------------------------------------------------------|
A|-----------------------------------------------------------|
E|-----------------------------------------------------------|

E|-----------------------------------------------------------------------10-15b-15-14-15-14----|
B|----------------------------------------10b--7-------------------10-12--------------------15-|
G|--9-7----7-6-----------------------9-11--------9~~-7---7--7-9/11-----------------------------|
D|-----9-7-----7-----7--7-9-9-7-9/11-------------------9---------------------------------------|
A|---------------7-9---9-----------------------------------------------------------------------|
E|---------------------------------------------------------------------------------------------|

E|-----------------------10-12b-12b--10h12b~--|
B|-----------10----10-12----------------------|
G|--7-7-9/11----11----------------------------|
D|--------------------------------------------|
A|--------------------------------------------|
E|--------------------------------------------|
Página 1 / 1

Letras e título
Acordes e artista

resetar configurações
OK