Cifra Club

Aprenda

Meu Mestre

Irmão Lázaro

Cifra: Versão 5 (violão e guitarra)
tom: D
(solo)
E|----------------------------------------------------------
B|-----------------------------------------------10---------
G|----7---9---11b---9---7-------7---7-9-9-7-9/11----9-7---7-
D|-7-----------------------7--9---9---------------------9---
A|----------------------------------------------------------
E|----------------------------------------------------------

E|-------------10--10---10-10-10--9-9--7-7------------------
B|-------10-12---12------------------------10-10------------
G|-7-9-11---------------------------------------------------
D|----------------------------------------------------------
A|----------------------------------------------------------
E|----------------------------------------------------------

E|----------------------------------------------------------------------10-15b-15-14-15-14----
B|---------------------------------------10b--7-------------------10-12--------------------15-
G|-9-7----7-6-----------------------9-11--------9~~-7---7--7-9/11-----------------------------
D|----9-7-----7-----7--7-9-9-7-9/11-------------------9---------------------------------------
A|--------------7-9---9-----------------------------------------------------------------------
E|--------------------------------------------------------------------------------------------

E|----------------------10-12b-12b--10h12b~--
B|----------10----10-12----------------------
G|-7-7-9/11----11----------------------------
D|-------------------------------------------
A|-------------------------------------------
E|-------------------------------------------

 A minha vida é do Mestre
           A
Meu coração é do meu Mestre
         Em     D/F#
O meu caminho é do Mestre
G            D        A
 Minha esperança é meu Mestre (2x)

D        A
À Deus eu entreguei
         Em
O barco do meu ser
             Bm   A
E entrei no mar  afora
D          A
Pra longe eu naveguei
         Em
Não vejo mais o cais
       Bm    A
Só Deus e eu agora

D                  D4  D
A minha vida é do Mestre
           A
Meu coração é do meu Mestre
         Em     D/F#
O meu caminho é do Mestre
G             D      A
 Minha esperança é meu Mestre

D        A
Na solidão da lida
       Em
Eu pude perceber
         D      A  D
O quanto Deus me ama, Deus e ama ahhh
D           A
 As ondas grandes vêm
         Em
Tentando me arrastar
          Bm   A  D
Pra longe da presença Dele
Composição de Lázaro
Colaboração e revisão:
  • Joao soares
  • alex aguiar
  • Gabriel Simas
11.623 exibições
    • ½ Tom
    • A
    • Bb
    • B
    • C
    • Db
    • D
    • Eb
    • E
    • F
    • F#
    • G
    • Ab
  • Adicionar à lista

    0 comentários

    Ver todos os comentários
    00:00 / 00:00
    outros vídeos desta música
    repetir qualidade Automático
    Outros vídeos desta música
    00:00 / 00:00
    Automático

    Cifra Club Pro

    Aproveite o Cifra Club com benefícios exclusivos e sem anúncios
    Cifra Club Pro
    Aproveite o Cifra Club com benefícios exclusivos e sem anúncios
    OK