Eu Juro

Leandro & Leonardo

Composição de: Demian / Frank Meyers / Gary Baker
tom: F
[Intro] F  Dm  Am  Bb/C  C7
        F  Dm  Am  Bb/C  C7

[Primeira Parte]

F           Bb/D   C/E   F
 Eu vejo a luz do teu olhar
          Bb    C   Dm
Como uma noite de luar
             Bb           Bb/C  C7
Luz que me guia aonde eu for
   F         Bb/D  C/E   F
Você, meu motivo pra sorrir
         Bb/D   C/E   Dm
Caminho certo pra seguir
          F/C
Saiba que é só teu
 G/B             Bb/C  C7
Meu verdadeiro amor

[Refrão]

    F             Dm
Eu juro, por mim mesmo
                    Am
Por Deus, por meus pais
         Bb/C  C7
Vou te amar
    F               Dm              Am
Eu juro, que esse amor não acaba jamais
         Bb  C
Vou te amar

   Gm              Bb/C     C7
É tanto querer, é tanta paixão
   Gm               Bb/C    C7
Te amo do fundo do meu coração
    F  
Eu juro

( F  Dm  Am  Bb/C  C7 )

[Segunda Parte]

F         Bb/D  C/E   F
 Um homem e   uma mulher
             Bb    C   Dm
Juntos pro que der e vier
        Bb             Bb/C  C7
A meia luz, a dois, a sós
   F      Bb/D  C/E    F
Então, a gente vai sonhar
         Bb/D C/E Dm
E conseguir realizar
              F/C
Um mundo de amor sem fim
     G/B              Bb/C  C7
Porque só depende de nós

[Refrão]

    F             Dm
Eu juro, por mim mesmo
                    Am
Por Deus, por meus pais
         Bb/C  C7
Vou te amar
    F               Dm              Am
Eu juro, que esse amor não acaba jamais
         Bb  C
Vou te amar

   Gm              Bb/C     C7
É tanto querer, é tanta paixão
   Gm               Bb/C    C7
Te amo do fundo do meu coração
   
Eu juro

[Solo] F  Dm  Am  Bb/C  C7

E|------------------------------------------|
B|----13~-10-11-13p11-10-10b/8p6-5~---------|
G|----------------------------------5-7--5\-|
D|-10-----------------------------------7---|
A|------------------------------------------|
E|------------------------------------------|

E|---------------------13----13-15-17-18-21~|
B|-----------------/13----13----------------|
G|-----5-5h7-5~-10--------------------------|
D|-7-8----------10--------------------------|
A|------------------------------------------|
E|------------------------------------------|

E|-19-18-18b\16p14----15--------------------|
B|-----------------17----17p15--------------|
G|-----------------------------14-----------|
D|------------------------------------------|
A|------------------------------------------|
E|------------------------------------------|

E|------------------------------------------|
B|--13-/15-18--22-20~------------------------|
G|------------------------------------------|
D|------------------------------------------|
A|------------------------------------------|
E|------------------------------------------|

[Refrão]

    F             Dm
Eu juro, por mim mesmo
                    Am
Por Deus, por meus pais
         Bb/C  C7
Vou te amar
    F               Dm              Am
Eu juro, que esse amor não acaba jamais
         Bb  C
Vou te amar

   Gm              Bb/C     C7
É tanto querer, é tanta paixão
   Gm               Bb/C    C7
Te amo do fundo do meu coração
    F  Dm  
Eu juro
    Bb  C7
Eu juro

[Final] F
Página 1 / 1

Letras e título
Acordes e artista

resetar configurações
OK