Cifra Club

Aprenda

O Quanto o Nosso Amor Valeu

Leandro & Leonardo

Cifra: Principal (violão e guitarra)
tom: Em
[Intro] Em  Bm  C  G  D

E|---------------------------|---------------------------|
B|---------------------------|---------------------------|
G|---------------------------|---------------------------|
D|---5--7--7h9---------------|--5--7--7h9----------------|
A|--------------7--7--9--7---|-------------7--7--9--7----|
E|---------------------------|---------------------------|

E|---------------------------|---------------------------|
B|--5--7--7h8--5--5----------|---------------------------|
G|-------------------5--5----|--5--7--7h9--7--5--4-------|
D|---------------------------|----------------------7----|
A|---------------------------|---------------------------|
E|---------------------------|---------------------------|

   G                    D
Tentei, mas foi inútil pôr alguém em seu lugar
  C             Am     G
Você marcou demais, você me fez sonhar D7
   G                      D
Busquei em outra boca o sabor do beijo seu
     C                     G
Em outros braços percebi o quanto o nosso amor
G   D/F#
Valeu

Em            Bm   C                     D    D#º
Saiu da minha vida levou a minha outra metade
Em                     Bm      C
De tudo que passamos juntos, ficou pra mim só a
   C    D#º
Saudade

Em                                     Bm
Cadê você que não me liga pra dizer ao menos se está tudo bem ?
              C
Ou se alguma vez ouviu seu coração pedindo pra
   G
Voltar ?

      Am                                Em
Porque eu muitas vezes me peguei aqui sonhando
                                 D            C
Com você chegando, dizendo: "te amo, amor, voltei
 D    G
Pra ficar”

( Em  Bm  C  G  D )

Em            Bm   C                     D    D#º
Saiu da minha vida levou a minha outra metade
Em                     Bm      C
De tudo que passamos juntos, ficou pra mim só a
   C    D#º
Saudade

Em                                     Bm
Cadê você que não me liga pra dizer ao menos se está tudo bem ?
              C
Ou se alguma vez ouviu seu coração pedindo pra
   G
Voltar ?

      Am                                Em
Porque eu muitas vezes me peguei aqui sonhando
                                 D            C
Com você chegando, dizendo: "te amo, amor, voltei
 D    G
Pra ficar”

Em                                     Bm
Cadê você que não me liga pra dizer ao menos se está tudo bem ?
              C
Ou se alguma vez ouviu seu coração pedindo pra
   G
Voltar ?

      Am                                Em
Porque eu muitas vezes me peguei aqui sonhando
                                 D            C
Com você chegando, dizendo: "te amo, amor, voltei
 D    G
Pra ficar”

( Em  Bm  C  G  D )
Composição de Tivas / Waldir de Lazzari
33.563 exibições
    • ½ Tom
    • Am
    • Bbm
    • Bm
    • Cm
    • C#m
    • Dm
    • Ebm
    • Em
    • Fm
    • F#m
    • Gm
    • G#m
  • Adicionar à lista

    0 comentários

    Ver todos os comentários

    Conseguiu tocar?

    2 Tocaram 0 Ainda não

    Grave um vídeo tocando O Quanto o Nosso Amor Valeu e nos envie!

    00:00 / 00:00
    outros vídeos desta música
    repetir qualidade Automático
    Outros vídeos desta música
    00:00 / 00:00
    Automático

    Cifra Club Pro

    Aproveite o Cifra Club com benefícios exclusivos e sem anúncios
    Cifra Club Pro
    Aproveite o Cifra Club com benefícios exclusivos e sem anúncios
    OK