Guia do Acaso

Lee Jhones

tom: F
Riff 1 :
e|-3..-|  >deixa soar
b|-----|
g|-----|

Riff 2:
e|--3--|
b|--3--|
g|--0--|
D|--0--|   > da uma palhetada forte...
A|--2--|
E|--3--|

PONTE: (guitarra solo)
e|------------------------------------------------------------------------------------------|
b|------------------------------------------------------------------------------------------|
g|--10--10-9-7--12-14-12--13-13-12-10--15--15-17-15-13-13-12-10--10-10-12-10--12-12-14--16--|
D|--10----------12--------13-----------15-----------13-----------10-----------12------------|
A|--8-----------10--------11-----------13-----------11-----------8------------10------------|
E|------------------------------------------------------------------------------------------|

Intro: C, G/B,  Am,  F5  2x

e|---------------------------------------------------------------------------------------|
b|---------------------------------------------------------------------------------------|
g|-12-10-9-7-9-5---12-10-9-5-7-7--5-7-9-5-7-9-12-10-9---12-10-9--7-9-5--5-7-7-5-7-7/9-7--|
D|---------------------------------------------------------------------------------------|
A|---------------------------------------------------------------------------------------|
E|---------------------------------------------------------------------------------------|

e|-----------------------|
b|-----------------------|
g|-5-7-9-5-7-9--10-9-7-5-|
D|-----------------------|
A|-----------------------|
e|-----------------------|

(C5,  G/B,  Am,  G)                             Riff 1
Quantas vezes eu tentei andar na direção do sol
                                                Riff 2
Pegadas solitárias pelo chão no meio da multidão
                                                          Riff 1
Contando as estrelas pelo céu, contava com o que aconteceu
Suave como a noite que chegou, e o dia amanheceu

(C5,  G/B,  Am,  F5)                         |
Quando me perco nesse labirinto              |
Eu não tenho ninguém                         | a guitarra base faz o ritmo normal enquanto
Quando me encontro no infinito               | a guitarra solo da a palhetada da nota e deixa soar.
Eu só tenho você                             |

(C5,  G/B,  Am,  G)                         Riff 1
Toda vez que eu não sei em que esquina estou   
As placas me indicam contramão
                                    Riff 2
Os olhos custam enxergar na escuridão
                                                                Riff 1
Voltando de algum lugar qualquer, a cabeça pesa entre o sim e o não
Te encontro com a certeza que amanha
Teremos que inventar uma nova canção

(C5,  G/B,  Am,  F5)                         |
Quando me perco nesse labirinto              |
Eu não tenho ninguém                         | a guitarra base faz o ritmo normal enquanto
Quando me encontro no infinito               | a guitarra solo da a palhetada da nota e deixa soar.
Eu só tenho você                             |

PONTE:
(F5,  G5, G#5, A#5,  G#5, F5,  G5,  G5)
Sabendo de que tudo não passou de nada
Sabendo que no mundo não há nada igual
Querendo alguma coisa pra pensar que tudo
Será melhor do que estamos tendo que engolir
Não tenho um remédio pra prever a dor
Me encontro no desejo de ser imortal
Mas sei que na verdade que todos querem que na vida a história não acabe com o mesmo final   

> da uma pausa e entra no solo, quando entra o solo se baixa um tom... C5-> Bb5:
SOLO  (Bb5, F, Gm, Eb5)

(Bb5, F, Gm, Eb5)
Quando me perco nesse labirinto
Eu não tenho ninguém
Quando me encontro no infinito
Eu só tenho você
Quando me perco nesse labirinto
Eu não tenho ninguém
Quando me encontro no infinito
Eu só tenho você

e|----------------|\
b|----------------| \
g|-10-10-10-8-8---|  \
D|-8--8--8--8-8---|  / 2 VEZES PRA TERMINAR...
A|-6--6--6--6-6---| /
E|------------6---|/
Página 1 / 1

Letras e título
Acordes e artista

resetar configurações
OK