Cifra Club

Aprenda

1965 (Duas Tribos)

Legião Urbana

Tab de baixo: Principal
intro 
Vou passar, quero ver, volta aqui, vem você

G-------------------------------------------|
D-------------------------------------------|
A--------2-3-5----3-2-0-00---2---5--55-55---|
E---3-3--------------------3----------------|

Não se esqueça,        temos sorte   e  agora é  aqui

G----------------------------------------------------------------------|
D----------------------------------------------------------------------|
A---3-33-3--2-22-2-----3-33-3--2-22-2--0-00-0---0-3--5---3-h-5--3-h-5--|
E----------------------------------------------------------------------|


Quando querem transformar...

G----------------------------------|
D----------------------------------|
A------------------5-5-5-5-5-5-----|
E---3-3-3-3-3-3--------------------|

Mataram o menino...

G----------------------------------|
D----------------------------------|
A----------------------------------|
E---3-3-3-3-3-3-3-3-3-3-3-3-3-3-3-3|


O Brasil é o pais do futuro...

G-------------------------------------------|
D-------------------------------------------|
A--------2-3-5----3-2-0-00---2---5--55-55---|
E---3-3--------------------3----------------|

Em toda e qualquer situação eu quero tudo pra cima..

G------------------------------------------------------|
D------------------------------------------------------|
A---3-33-3--2-22-2-----3-33-3--2-22-2--0-00-0—5-55-5---|
E------------------------------------------------------|

pra cima..

G-----------------|
D-----------------|
A---0-00-0—5-55-5-|
E-----------------|


Parte final

G--------------------|
D--------------------|
A—3—-3-2---2-0-------|
E--------------3-----|
Composição de Dado Villa-Lobos / Marcelo Bonfá / Renato Russo
20.608 exibições

0 comentários

Ver todos os comentários
00:00 / 00:00
outros vídeos desta música
repetir qualidade Automático
Outros vídeos desta música
00:00 / 00:00
Automático

Cifra Club Pro

Aproveite o Cifra Club com benefícios exclusivos e sem anúncios
Cifra Club Pro
Aproveite o Cifra Club com benefícios exclusivos e sem anúncios
OK