Cifra Club

Aprenda

1977

Legião Urbana

Tab de baixo: Principal
Intro 2x
G|---------------------------------------------------|
D|---------------------------------------------------|
A|--2-2-2-2-2-2-------------5-5-5-5-5-5-5-5-5-5-5-5--|
E|--------------2-2-2-2-2-2--------------------------|
 
Parte 1:
G|--------------------------------------------------|---------------------------------------------------|
D|--------------------------------------------------|---------------------------------------------------|
A|--2-2-2-2-2-2-------------------------------------|--------------5-5-5-5-5-5-------------2-2-2-2-2-2--|
E|--------------2-2-2-2-2-2-5-5-5-5-5-5-0-0-0-0-0-0-|--2-2-2-2-2-2-------------5-5-5-5-5-5--------------|

G|--------------------------------------|
D|--------------------------------------|
A|--------------2-2-2-2-2-2-------------|
E|--0-0-0-0-0-0-------------2-2-2-2-2-2-|

Parte 2:
G|---------------------------------------------------------------------------------------|
D|---------------------------------------------------------------------------------------|
A|--------------2-2-2-2-2-2-------------5-5-5-5-5-5-------------2-2-2-2-2-2--------------|
E|--0-0-0-0-0-0-------------2-2-2-2-2-2-------------2-2-2-2-2-2-------------5-5-5-5-5-5--|

Parte 3:
G|-------------------------------------------------------------------------------------------------|
D|-------------------------------------------------------------------------------------------------|
A|------------2-2-2-2-2-2-------------5-5-5-5-5-5-2-2-2-2-2-2-------------5-5-5-5-5-5--------------|
E|2-2-2-2-2-2-------------2-2-2-2-2-2-------------------------2-2-2-2-2-2-------------5-5-5-5-5-5--|

Refrão:
G|---------------------------------------------------------------------------------------|-------------|
D|---------------------------------------------------------------------------------------|-------------|
A|--2-2-2-2-2-2-------------5-5-5-5-5-5-------------2-2-2-2-2-2-------------5-5-5-5-5-5--|-2-2-2-2-2-2-|
E|--------------2-2-2-2-2-2-------------5-5-5-5-5-5-------------2-2-2-2-2-2--------------|-------------|
                                                                                
Composição de Dado Villa-Lobos / Marcelo Bonfá / Renato Russo
Colaboração e revisão:
  • Adriano
1.098 exibições

0 comentários

Mostrar mais comentários
00:00 / 00:00
outros vídeos desta música
repetir qualidade Automático
Outros vídeos desta música
00:00 / 00:00
Automático

Cifra Club Pro

Aproveite o Cifra Club com benefícios exclusivos e sem anúncios
Cifra Club Pro
Aproveite o Cifra Club com benefícios exclusivos e sem anúncios
OK