Cifra Club

Antes Das Seis

Legião Urbana

Cifra: Principal (violão e guitarra)
Tom: G
(intro) D G C Em C D G C Em C D G G Em C D C G
        Am Em C D Am Em C D Bm Em Am D Bm Em Am D

E|-------------3--------------------------------------------------3------------------|
B|-----3---------3---------1--------0-------------------3-----------3----------------|
G|---2---2----------0--------0--------0-----------0-------2--------------------0-----|
D|-0--------------------2-----------------(0)---2----0------0----------(0)---2-------|
A|----------2---------3---------2-------------3----------------2-----------3-------2-|
E|----------3-------------------0------------------------------3-------------------0-|
                            H
E|----------------------------|----3----------3---------------3-------------3-2-|
B|--------------3-----------5-|------3----------3---------------1---------3-----|
G|---------0------2---------5-|--------0----------0--------0------0-----2-------|
D|-(0)---2----0-----0-------5-|-0----------2--------2----2------------0---------|
A|-----3---------------2------|-x----------------------3------------------------|
E|---------------------3------|-3-----------------------------------------------|

E|----------------------3--------------3------------------3-2---------------------|
B|------------------------1----------1-----------------------------3--------------|
G|--------------------------2--------------2-----------2-------------4--4-4-4-4---|
D|----------------------------0-----------------0------0----------------4-4-4-4-2-|
A|-0-3~--0-------0--------------3-------------3---3-------------2-------2-2-2-2-2-|
E|---------3~--0----0-----------------------------------------------------------0-|

E|----------------------------0h2-3-2----------------------------------------------|
B|-0-------------1----------------------------3------------0--------------1--------|
G|----0---0---------2---2-------------(0)-------4--------------0---0---------2---2-|
D|------2-----2-------2-----0------------------------0-----------2------2------2---|
A|------------0----------------------------2-------2-----2--------------0----------|
E|-------------------------------------------------------0-------------------------|

E|---0h2-3-2-|
B|-------3-2-|
G|-----------|
D|-0---------|
A|-----------|
E|-----------|

(guitarra - riff 1)        (guitarra)
E|-3-3-2-0-2-3-3-|     E|-7-7-7-10-10-10-8-8-8-8p2s10-15--|
B|---------------|4x   B|---------------------------------|
G|---------------|     G|---------------------------------|
D|---------------|     D|---------------------------------|
A|---------------|     A|---------------------------------|
E|---------------|     E|---------------------------------|

D      Am     C       G
 Quem inven..tou o amor?
D       Am   C     G
 Me explica por favor
Em         C
 Quem inventou o amor?
D
 Me explica por favor
Bm       Em               Am
 Vem me diz o que aconteceu
              D
 Faz de conta que passou
Bm         Em       Am
 Quem inventou o amor?
            D
 Me explica por favor
D       Am   C      G    (riff 1)
 Daqui vejo seu descanso
D      Am      C     G   (riff 1)
 Perto do seu travesseiro
Em            C          (riff 1)
 Depois quero ver ser acerto
     D       (riff 1)
 Dos dois quem acorda primeiro
Bm          Em
 Quem inventou o amor?
Am          D
 Me explica por favor
Bm          Em
 Quem inventou o amor?
Am          D
 Me explica por favor

(solo) D4 D D9 D D4

E|-3-3-2-0-2-3-3-|
B|---------------|(4x)
G|---------------|
D|---------------|
A|---------------|
E|---------------|

Am  Em      C       D
 Quem inventou o amor?
Am     Em    C     D
 Me explica por favor
Am     Em     C       D
 Quem inven..tou o amor?
Am     Em    C     D
 Me explica por favor
Bm               Em
 Enquanto a vida vai e vem
Am              D
 Você procura achar alguém
D           Am    C    G    (riff 1)
 Que um dia possa lhe dizer
D        Am      C     G    (riff 1)
-Quero ficar só com você

(guitarra - riff 1)

(solo do violão)
E|------------------------------------------------------------------------|
B|------------------------------------------------------------13-12----12-|
G|-------12-12-12-12------14-12----12--------12-12-12-12---12-------14----|
D|-12h14---------------14-------12-----12h14------------------------------|
A|------------------------------------------------------------------------|
E|------------------------------------------------------------------------|
(D Am C G)
Quem inventou o amor?
exibições 459.725
Acordes para:
    Composição: Dado Villa-Lobos / Renato Russo Colaboração e revisão:

    0 comentários

    mostrar mais comentários

    Conseguiu tocar?

    37 tocaram 1 ainda não

    Grave um vídeo tocando Antes Das Seis e mande pra gente!

    00:00 / 00:00
    outros vídeos desta música
    repetir qualidade Automático
    Outros vídeos desta música
    00:00 / 00:00
    Automático
    OK