Notificações Amigos pendentes

      Legião Urbana

      Conexão Amazônica

      66.269 exibições
      Tom: D
      Versão 1
      -======-
      
      Introd.: Bb5 (F5,Bb5)
      
      
      Riff: Bb5    (F5                        Bb5)
      E|---------------------------------------------|
      B|---------------------------------------------|
      G|----3-3-3-----------------------------3-3-3--| esse riff vai junto com os acordes (F5,Bb5)
      D|----3-3-3---3---3-3-3---3-3-3---3-3---3-3-3--|
      A|----1-1-1---3---3-3-3---3-3-3---3-3---1-1-1--|
      E|------------0h1-1-1-0h1-1-1-0h1-1-1----------|
      
      
                 (F5 Bb5)
       Estou cansado de ouvir falar
       Em Freud,Jung,Engels e Marx
       Intrigas intelectuais rodando em mesa de bar
      
       Db5
       Yeah,yeah,yeah
       Bb5
       Yeah,yeah,yeah
       F5
       Yeah,yeah,yeah
      
                (F5 Bb5)
       O que eu quero,eu não tenho
       O que eu não tenho,eu quero ter
       Não posso ter o que eu quero
       E acho que isso não tem nada a ver
      
       Db5
       Yeah,yeah,yeah
       Bb5
       Yeah,yeah,yeah
       F5
       Yeah,yeah,yeah
      
            (F5 Bb5)
       Os tambores da selva já começaram a rufar
       Os tambores da selva já começaram a rufar
       A cocaína não vai chegar
       A cocaína não vai chegar
       Conexão amazônica está interrompida
      
       Db5
       Yeah,yeah,yeah
       Bb5
       Yeah,yeah,yeah
       F5
       Yeah,yeah,yeah
      
             C                          Eb                         F
       E você quer ficar maluco sem dinheiro e acha que está tudo bem
              C                      Eb                      F
       Mas alimento pra cabeça nunca vai matar a fome de ninguém
           C                   Eb                      F
       Uma peregrinação involuntária talvez fosse a solução
            C                         Eb              F
       Auto-exílio nada mais é do que ter seu coração na solidão
      
       Db5
       Yeah,yeah,yeah
       Bb5
       Yeah,yeah,yeah
       F5
       Yeah,yeah,yeah
      
       Solo:
      Guitarra.
      
      E|----------------------------|
      B|-5-7b8-5-7b8-5--8-5-0-5~-5~-|4x antes de entrar o violão, aí ele muda um pouco.
      G|----------------------------|
      D|----------------------------|
      A|----------------------------|
      E|----------------------------|
      
      
      Guitarra: Este solo já é na hora em que o violão começa, ele aparece algumas vezes.
      
      E|--------------------------------|
      B|-5-7b8-5-7b8-5--8-5-0-5-8s10-5~-|
      G|--------------------------------|
      D|--------------------------------|
      A|--------------------------------|
      E|--------------------------------|
      
      
      Violão:
      
      E|-7-7-7--5-7-10-10-7-7---7-7-9-10--10-10-10-10-9~-9-7-7-7--5-7-10-10-7-7---7-7-9-10--10-10-10-10-9~|
      B|--------------------------------------------------------------------------------------------------|
      G|--------------------------------------------------------------------------------------------------|
      D|--------------------------------------------------------------------------------------------------|
      A|--------------------------------------------------------------------------------------------------|
      E|--------------------------------------------------------------------------------------------------|
      
      
             (F5 Bb5)
       Estou cansado de ouvir  falar
       Em Freud, Jung, Engels e Marx
       Intrigas intelectuais
       Rodando em mesa de bar
      
       Db5
       Yeah,yeah,yeah
       Bb5
       Yeah,yeah,yeah
       F5
       Yeah,yeah,yeah
      
      Violão do final:
      
      E|------------------------|
      B|-3-3-3-3--2-3-2-3-3s5-5-|8x
      G|------------------------|
      D|------------------------|
      A|------------------------|
      E|------------------------|
      
      
      Acordes:
             EADGBE
      
      F5  ->(1330xx)
      B|->(113331)
      
      Bb5 ->(x1330x)
      Db5 ->(x4660x)
      
      C   ->(335553)
      E|->(x65343)
      
      F   ->(133211)
      
      Notações:
      B|-> bend
      s -> slide
      
      (Transcrita por:Gabriel Ysllu Chagas)
      Urbana Legio Omnia Vincin. Força sempre
      Ouça sempre no ultimo volume.
      
      
      
      
      _____________________________________________________________________
      
      
      
      
      Versão 2
      -======-
      
      Conexão Amazônica
      De: Renato Russo/ Fê Lemos
      Álbum: Que país é este
      Cifrado: sacrificedevil
      Intro: (Bb F)
      
                  Bb    (F                        Bb)
      
      E|- - - - - - - - - - - - - - - - - - - - - - - - - - -
      B|- - - - - - - - - - - - - - - - - - - - - - - - - - -
      G|- - - - 3-3-3 - - - - - - - - - - - - 3- -3 -3 -
      D|- - - -3 -3-3 -3 - 3- 3 - - - - - - 3- -3 -3 -
      A|- - - -1 -1-1 -3 -3 -3 - - - - - - -1 - 1- 1- -
      E|- - - - - - - - - 1- 1- 1-0h1 - - - - - - - - - -
      
            (F Bb)
      Estou cansado de ouvir falar
      Em Freud,Jung,Engels e Marx
      Intrigas intelectuais rodando em mesa de bar
      
       Db        Bb    F
       Ei  ei ei ei  ei ei.....
      
      
                (F Bb)
       O que eu quero,eu não tenho
       O que eu não tenho,eu quero ter
       Não posso ter o que eu quero
       E acho que isso não tem nada a ver
      
       Db        Bb    F
       Ei  ei ei ei  ei ei.....
      
                   F
       Os tambores da selva já começaram a rufar
       Os tambores da selva já começaram a rufar
       A cocaína não vai chegar
       A cocaína não vai chegar
       Conexão amazônica está interrompida
      
       Db        Bb    F
       Ei  ei ei ei  ei ei.....
      
                   C                                    Eb                                            F
       E você quer ficar maluco sem dinheiro e acha que está tudo bem
                    C                                 Eb                                 F
       Mas alimento pra cabeça nunca vai matar a fome de ninguém
               C                             Eb                            F
       Uma peregrinação involuntária talvez fosse a solução
                  C                                  Eb                    F
       Auto-exílio nada mais é do que ter seu coração na solidão
      
        Db        Bb    F
       Ei  ei ei ei  ei ei.....
      
       Solo: Guitarra
      
      
      E|----------------------------
      B|-5-7b8-5-7b8-5--8-5-0-5-5~-
      G|----------------------------
      D|----------------------------
      A|----------------------------
      E|----------------------------
      
      quando o solo do violão entra muda um pouco o da guitarra em algumas partes melhor ouvir a música para saber
      
      E|--------------------------------
      B|-5-7b8-5-7b8-5--8-5-0-5-8s10-5~-
      G|--------------------------------
      D|--------------------------------
      A|--------------------------------
      E|--------------------------------
      
      obs: fazer esse solo se baseando no ritimo da música, tente ouvir a bateria da música assim ficará mais facil
      
      Violão:
      
      E|-7-7-7--5-7-10-10-7-7---7-7-9-10--10-10-10-10-9~-9-7-7-7--5-7-10-10-7-7---7-7-9-10--10-10-10-10-9~
      B|---------------------------------------------------------------------------------------------------
      G|---------------------------------------------------------------------------------------------------
      D|--------------------------------------------------------------------------------------------------
      A|--------------------------------------------------------------------------------------------------
      E|-------------------------------------------------------------------------------------------------
      
      
             (F Bb)
       Estou cansado de ouvir  falar
       Em Freud, Jung, Engels e Marx
       Intrigas intelectuais
       Rodando em mesa de bar
      
       Db        Bb    F
       Ei  ei ei ei  ei ei.....
      
      solinho do violão no final facil segui a obs de cima ok.
      
      E|------------------------
      B|-3-3-3-3--2-3-2-3-3-5-5-
      G|------------------------
      D|------------------------
      A|------------------------
      E|------------------------
      
      
      Rock Na veia viva a legião para todos os metaleiros vida longa.
        Composição: Felipe Lemos / Renato RussoColaboração e revisão:
        • Gabriel

        Comentários 2

        140 .
        • lounge lounge: Em 08/09/2012 16:47

          tenta palhetar só pra baixo ao estilo metallica para sair um som mais pesado...

        • thallesfelipe thallesfelipe: Em 04/10/2011 18:37

          Muito bomm, poderia dar uma dica do ritmo cara? Valeeu

        140 cancelar

        conseguiu tocar?

        JEMILSON dos santos173 visualizações
          ver covers de outras músicas »
          0:00 / 0:00

          Capítulos

            play/pausefechar subir/descer velocidade
            6ª corda E5ª corda A4ª corda D3ª corda G2ª corda B1ª corda E
              acordes
              publicidade
              fechar
              ok