Cifra Club

Aprenda

Daniel Na Cova Dos Leões

Legião Urbana

Tab de baixo: Principal
G|--------------------------|
D|-7-7----------------------|
A|-----7-8-8/---------------|
E|-------------3-0-0-1-1-3-3|   (12x)

G|----------------------------------|
D|----------------------------------|
A|55555555-------333333-11111-------|
E|--------1111111-------------------|   (2x)

G|--------------------------|
D|-7-7----------------------|
A|-----7-8-8/---------------|
E|-------------3-0-0-1-1-3-3| (12x)

G|----------------------------------|
D|----------------------------------|
A|55555555-------333333-11111-------|
E|--------1111111-------------------|   (2x)

G|--------------------------|
D|-7-7----------------------|
A|-----7-8-8/---------------|
E|-------------3-0-0-1-1-3-3| (8x)

G|----------------------------------|
D|----------------------------------|
A|55555555-------333333-11111-------|
E|--------1111111-------------------| (2x)

G|--------------------------|
D|-7-7----------------------|
A|-----7-8-8/---------------|
E|-------------3-0-0-1-1-3-3| (17x)

G|----------------------------|
D|7~-9~-7~-6~-5~-4~-3~-2~-0(0)| (Final com o
A|----------------------------| Piano...)
E|----------------------------|
Composição de Renato Russo
Colaboração e revisão:
  • Jonny Bass
  • Robson Baru
23.568 exibições

0 comentários

Ver todos os comentários
00:00 / 00:00
Outros vídeos desta música
Repetir Qualidade Automático
Outros vídeos desta música
00:00 / 00:00
Automático

Cifra Club Pro

Aproveite o Cifra Club com benefícios exclusivos e sem anúncios
Cifra Club Pro
Aproveite o Cifra Club com benefícios exclusivos e sem anúncios
OK