Enviar cifraEntrar

Desemprego

Legião Urbana

Cifra: Principal
exibições 48.112
Tom: C#
Intro.:  [Ponte]  - ( C#   F#   C#    F# )

[Ponte]

 [Guitarra]                  [Conta Baixo]

E|-1---1-----1---2---1----| |------------------------|
B|--------2-------------2-| |------------------------|
G|------------------------| |------------------------|
D|------------------------| |-3---3-----3---4---3----|
A|------------------------| |--------4-------------4-|
E|------------------------| |------------------------|


C#
   Não sei se tenho medo
F#
   Não sei se tenho medo
C#
   Trabalho o tempo inteiro
F#
   Estou procurando emprego
C#
   E é mais um aumento
F#
   Não tenho mais dinheiro
C#
   Atraso o aluguel
F#                           G#   F#   C#   B   F#   G#
   Mal compro alimento.
 

  C#                         F#                         C#
E|----------------------1-----1-|------------------------|--------------1------|
B|-4-4-2-2--4-4-2-2--4--0--4--0-|-4-4-2-2--4--2--4-4-2-2-|-4-4-2-2---4--0--4-2-|
G|-1-1-1-1--1-1-1-1--1-----1----|-1-1-1-1--1--1--1-1-1-1-|-1-1-1-1---1-----1-1-|
D|------------------------------|------------------------|---------------------|
A|------------------------------|------------------------|---------------------|
E|------------------------------|------------------------|---------------------|


  F#
E|------------------------|
B|-4-4-2-2--4--2--4-4-2-2-|
G|-1-1-1-1--1--1--1-1-1-1-|
D|------------------------|
A|------------------------|
E|------------------------|


C#
   Não sei se tenho medo
F#
   Não sei se tenho medo
C#
   Só esse desespero
F#
   Que esqueço quando bebo
C#
   Quem vai ser despedido?
F#
   Quem vai dançar primeiro?
C#
   E o pouco que eu recebo
F#                          G#   F#   C#   B   F#   G#
   É uma metade pelo meio.


  C#                    F#                         C#                  F#
      E|----------1-1-|-------------------1-1-|-------------------1-1-|-------------------1-|
      B|-4-4-2-2--0-0-|-4-4-2-2--4-4-2-2--0-0-|-4-4-2-2--4-4-2-2--0-0-|-4-4-2-2--4-4-2-2--2-|
      G|-1-1-1-1------|-1-1-1-1--1-1-1-1------|-1-1-1-1--1-1-1-1------|-1-1-1-1--1-1-1-1----|
      D|--------------|-----------------------|-----------------------|---------------------|
      A|--------------|-----------------------|-----------------------|---------------------|
      E|--------------|-----------------------|-----------------------|---------------------|


C#
   Não sei se tenho medo
F#
   Não sei se tenho medo
C#
   Só esse desespero
F#
   Que esqueço quando bebo
C#
   E é mais um aumento
F#
   Não tenho mais dinheiro
C#
   Atraso o aluguel
F#                               G#   F#   C#   B   F#   G#   
   Mal compro o alimento. ohhh...

 [Conta Baixo]                   [Guitarra]

E|------------------------|---| |-1---1-----1---2---1----|-4-|
B|------------------------|---| |--------2-------------2-|-6-|
G|------------------------|---| |------------------------|-6-|
D|-3---3-----3---4---3----|---| |------------------------|-6-|
A|--------4-------------4-|-4-| |------------------------|-4-|
E|------------------------|---| |------------------------|---|


"Cifra de uma gravação antiga em 1984 na Radio Imprensa do Renato cantando uma de sua músicas quase esquecida".

Essa é só pra quem é um verdadeiro fã da Legião Urbana!!
  • 1
  • 2
  • 3
  • 4
  • 5
  • 6
  • 7
  • 8
  • 9
  • 10
  • 11
  • 12
    Acordes para:
      Composição: Renato RussoColaboração e revisão:
      • renan_russo
      • Cachorro louco

      0 comentários

        mostrar mais comentários

        Conseguiu tocar?

        1tocaram0ainda não

        Grave um vídeo tocando Desemprego e mande pra gente!

        00:00 / 00:00
        outros vídeos desta música
        repetirqualidadeautomática
        • automática
        Outro vídeos desta música
          00:00 / 00:00
          automática
          • automática
          Acordes para:violão e guitarra
          dificuldadeexibiçõescontribuições
          fecharplay/pause subir/descer velocidade
            acordes
            fechar
            OK
            Feedback