Cifra Club

Aprenda

Eu Sei

Legião Urbana

Tab de baixo: Principal
(intro)
G--------------------
D--------------------
A--5-5-5-5-5-5-5-5---  4x
E--------------------

(parte 1) 
G----------------------------------------------------------------------
D---------------------------------------------------------------------- nessa linhe as vezes
A--5-5-5-5-5-5-5-5----------------------------------------------------- varia oitavando a nota E
E-----------------5-5-5-5-5-5-5-5-0-0-0-0-0-0-0-0-0-0-0-0-0-0-0-0--12--

(parte 2)
G-------------------------------------------------------------------
D-------------------------------------------------------------------
A-------------------------------------------------------------------
E--3-3-3-3-2-2-2-2-0-0-0-0-0-0-0-0-5-5-5-5-5-5-5-5-5-5-5-5-5-5-5-5--

(refrão)
G---------------------------------------------------------------------------------
D---------------------------------------------------------------------------------
A--5-5-5-5-5-5-0-5-0-------------------3-3-3-3-3-3-3-0-3-0-2-2-2-2-2-2-2--2-3-5...
E-------------------3-3-3-3-3-3-3-0-3-0-------------------------------------------
Composição de Renato Russo
Colaboração e revisão:
  • Pedro Henrique
12.943 exibições

0 comentários

Ver todos os comentários
00:00 / 00:00
outros vídeos desta música
repetir qualidade Automático
Outros vídeos desta música
00:00 / 00:00
Automático

Cifra Club Pro

Aproveite o Cifra Club com benefícios exclusivos e sem anúncios
Cifra Club Pro
Aproveite o Cifra Club com benefícios exclusivos e sem anúncios
OK