Cifra Club

Aprenda

Fábrica

Legião Urbana

Tab de baixo: Principal
Final da intro:

(nota C# umas 45 vezes)

G ------------------ 
D ------------------
A -4-4-4-4-4-4-4-4--
E ------------------



nosso dia vai chegar...
deve haver algum lugar...
o céu já foi azul...
solo de guitarra

G -------------------------------------------------------
D -------------------------------------------------------
A -4--4-4--4-4-4-4--4-4--4-4-----------------------------
E ----------------------------2--2-2--2-2-2-2--2-2--2-2--



quero trabalhar em paz...
quem me dera acreditar...

G -------------------------------------------------------
D -------------------------------------------------------
A -2--2-2--2-2-2-2--2-2--2-2--1--1-1--1-1-1-1--1-1--1-1--
E -------------------------------------------------------

G -------------------------------------------------------
D -------------------------------------------------------
A -------------------------------------------------------
E -4--4-4--4-4-4-4--4-4--4-4--2--2-2--2-2-2-2--2-2--2-2--



eu quero trabalho honesto...
de tanto brincar com fogo...

G -------------------------------------------------------
D -------------------------------------------------------
A -4--4-4--4-4-4-4--4-4--4-4--2--2-2--2-2-2-2--2-2--2-2--
E -------------------------------------------------------

G ----------------------------1--1-1--1-1-1-1--1-1--1-1--
D -1--1-1--1-1-1-1--1-1--1-1-----------------------------
A -------------------------------------------------------
E -------------------------------------------------------



de onde vem a indiferença...
quem guarda os portões...
esse ar deixou minha vista...
nada demais... nada demais... (fim)

G ----------------------------------------------------
D ----------------------------------------------------
A -4-4-4-4-4-5-----------2-3-----------1-2------------
E -------------4-4-4-4-4-----2-2-2-2-2-----4-4-4-4-4--

G -------------------------------------------1-1-1-1--1-1--
D -4-4-4-4--4-4--3-3-3-3--3-3--1-1-1-1--1-1----------------
A ---------------------------------------------------------
E ---------------------------------------------------------

_______________________________________________________
Contribuição: Leonardo Franco(iCQ: 26361220)
Composição de Renato Russo
13.505 exibições

0 comentários

Ver todos os comentários
00:00 / 00:00
outros vídeos desta música
repetir qualidade Automático
Outros vídeos desta música
00:00 / 00:00
Automático

Cifra Club Pro

Aproveite o Cifra Club com benefícios exclusivos e sem anúncios
Cifra Club Pro
Aproveite o Cifra Club com benefícios exclusivos e sem anúncios
OK