Enviar cifraEntrar

Fátima

Legião Urbana

Cifra: Principal
exibições 280.345
Tom: E
Intro: C#m A B

o baixo da musica e sempre o mesmo


D|------------------------------6h7-7-6-4-----|
A|-3h4-2-4-2-4--6h7-7-6-4----------------7-6--|
E|-------------------------7-5----------------|

      C#m 
Vocês esperam uma intervenção divina 
                   A 
Mas não sabem que o tempo agora 
              B 
está contra vocês 
         C#m 
Vocês se perdem no meio de tanto medo 
                   A 
De não conseguir dinheiro pra 
                   B 
comprar sem se vender 
      C#m 
E vocês armam seus esquemas ilusórios 
               A 
Continuam só fingindo que o mundo 
         B 
ninguém fez 
      C#m 
Mas acontece que tudo tem começo 
          A 
Se começa um dia acaba, eu tenho pena 
      B  (C#m B)  (C#m A B) 
de vocês 

Solo.

E|--------------------------------------------------------------|
B|--------------------------------------------------------------|
G|------3---3-5~--------3---3-5~--------3---3-5~-5s7-5-3-5-3----| 
D|-3h5----5--------3h5----5--------3h5----5------------------5~-|
A|--------------------------------------------------------------|
E|--------------------------------------------------------------|


E|-----------------------------------------------------------|
B|-----------------------------------------------------------|
G|------3---3-5-5-5~---------3---3-5~---------3---3-5-5-5-3~-|
D|-3h5----5-------------3h5----5---------3h5----5------------|
A|-----------------------------------------------------------|
E|-----------------------------------------------------------|


       C#m 
E as ameaças de ataque nuclear 
           A 
Bombas de neutrons não foi 
           B 
Deus quem fez 
          C#m 
Alguém, alguém um dia vai se vingar 
          A 
Vocês são vermes, pensam 
        B 
que são reis 
C#m 
Não quero ser como vocês 
A             B 
Eu não preciso mais 
      C#m 
Eu já sei o que tenho que saber 
   A    B    (C#m  A B) 
E agora tanto faz 

(C#m A B C#m A B) 

Solo.

E|-----------------------------------------------------------|--------|
B|-----------------------------------------------------------|------0-|
G|-----------------------------------------------------------|--2-3---|
D|-3h5~--3-5~----3---5~--5-3~----3h5~--3-5~-----3---5~--5-3~-|--------|
A|-------------5-----------------------------5---------------|--------|
E|-----------------------------------------------------------|--------|


E|----------------------------------------------------------------------------------|
B|-4-3-4-3-4p3h4--------------------------------------------------------------------|
G|-----------------3-5~-5-----3------------------3~---------------------------------|
D|--------------------------5----5~------3h5~--3-5--------3-5-5--5p3----------------|
A|------------------------------------------------------5---------------------------|
E|----------------------------------------------------------------------------------|

     C#m 
Três crianças sem dinheiro e sem moral 
                   A 
Não ouviram a voz suave que 
         B 
era uma lágrima 
          C#m 
E se esqueceram de avisar pra todo mundo 
                  A            B 
Ela talvez tivesse nome e era Fátima 
        C#m 
E de repente o vinho virou água 
      A               B 
E a ferida não cicatrizou 
    C#m 
E o limpo se sujou 
                     A 
E no terceiro dia ninguém 
  B     (C#m A B) 
ressuscitou 

Final.

E|------------------------------------------------------------|
B|------------------------------------------------------------|
G|------3---3-5~--------3---3-5~--------3---3-5~-5s7--7---8-7-| 
D|-3h5----5--------3h5----5--------3h5----5-------------8-----|
A|------------------------------------------------------------|
E|------------------------------------------------------------|


E|----------------------------------------------------------3-|
B|----------------------------------------------------------4-|
G|------3---3-5~--------3---3-5~--------3---3-5~-5s7--7-3~--5-| 
D|-3h5----5--------3h5----5--------3h5----5-------------------|
A|------------------------------------------------------------|
E|------------------------------------------------------------|
  • 1
  • 2
  • 3
  • 4
  • 5
  • 6
  • 7
  • 8
  • 9
  • 10
  • 11
  • 12
    Acordes para:
      Composição: Renato Russo, Flávio LêmosColaboração e revisão:
      • lipe
      • cadu@

      0 comentários

        mostrar mais comentários

        Conseguiu tocar?

        28tocaram2ainda não

        Grave um vídeo tocando Fátima e mande pra gente!

        00:00 / 00:00
        outros vídeos desta música
        repetirqualidadeautomática
        • automática
        Outro vídeos desta música
          00:00 / 00:00
          automática
          • automática
          Acordes para:violão e guitarra
          dificuldadeexibiçõescontribuições
          fecharplay/pause subir/descer velocidade
            acordes
            fechar
            OK
            Feedback