Cifra Club

Aprenda

Feedback Song For A Dying Friend

Legião Urbana

Tab de baixo: Principal
Essa tablatura foi baseada na versão ao vivo do disco As Quatro Estações.

intro 

Repete essa seqüência quatro vezes

G-------------------------------------------------------------------------|
D-----------------------8-------------------------------------------------|
A--10-10-10-10-10-10-10---10-8-10----10-10-10-10-010-10-10------8------10-|
E---------------------------------10-----------------------8-10---10-8----|

G-------------------------------------------------------------------------|
D-------------------------------------------------------------------------|
A---3-3-3-3-3-3---3—1----------------3-3-3-3-3-3-3---3-2------------------|
E-----------------------3-3-3-3-3-3----------------------3-3-3-3-3-3------|

Soothe the young man's sweating forehead
Touch the naked stem held hidden there

G-------------------------------------------------------------------------|
D-----------------------8-------------------------------------------------|
A--10-10-10-10-10-10-10---10-8-10----10-10-10-10-010-10-10------8------10-|
E---------------------------------10-----------------------8-10---10-8----|

Safe in such dark hayseed wired nest

G-------------------------------------------------------------------------|
D-------------------------------------------------------------------------|
A---3-3-3-3-3-3---3—1----------------3-3-3-3-3-3-3---3-2------------------|
E-----------------------3-3-3-3-3-3----------------------3-3-3-3-3-3------|

Then his light brown eyes are quick

G-------------------------------------------------------------------------|
D-------------------------------------------------------------------------|
A--5-5-3-5-5-3-55-7-8--8-7-8-7-8-7-88--3-3-3-3-3-3---3-2------------------|
E--------------------------------------------------------2-2-2-2-2-2------|


G-------------------------------------------------------------------------|
D-------------------------------------------------------------------------|
A---5-5-5-5-5-5-5-5-5-5-5-------------------------------------------------|
E---------------------------3-3-3-3-3-3-3-3-3-3-3-3-3---------------------|

Tis not his hands those there but mine
And safe,my hands do seek to gain
All knowledge of my master's manly rain

G-------------------------------------------------------------------------|
D-------------------------------------------------------------------------|
A--------------------------------1-1-1-1-1-1-1-1-1-1-1-1------------------|
E---3-3-3-3-3-3-3-3-3-3-3-3-3-----------------------------2-2-2-2-2-2-2-2-|



The scented taste that stills my tongue
G-------------------------------------------------------------------------|
D-------------------------------------------------------------------------|
A--1-1-1-1-1-1-1-1-1-1-1-1-1-1-1-1-1-1-1-1-1-1----------------------------|
E-------------------------------------------------------------------------|

Is wrong that is set but not undone
G-------------------------------------------------------------------------|
D-------------------------------------------------------------------------|
A-------------------------------------------------------------------------|
E---3-3-3-3-3-3-3-3-3-3-3-3-3-3-3-3-3-3-3-3-3-----------------------------|

His fiery eyes can slash my savage skin
And force all seriousness away

G-------------------------------------------------------------------------|
D-----------------------8-------------------------------------------------|
A--10-10-10-10-10-10-10---10-8-10----10-10-10-10-010-10-10------8------10-|
E---------------------------------10-----------------------8-10---10-8----|

G-------------------------------------------------------------------------|
D-------------------------------------------------------------------------|
A---3-3-3-3-3-3---3—1----------------3-3-3-3-3-3-3---3-2------------------|
E-----------------------3-3-3-3-3-3----------------------3-3-3-3-3-3------|

G-------------------------------------------------------------------------|
D-------------------------------------------------------------------------|
A--5-5-3-5-5-3-55-7-8--8-7-8-7-8-7-88--3-3-3-3-3-3---3-2------------------|
E--------------------------------------------------------2-2-2-2-2-2------|


He wades in close waters
Deep sleep alters his senses
I must obey my only rival

G-------------------------------------------------------------------------|
D-------------------------------------------------------------------------|
A-------------------------------------------------------------------------|
E---3-3-3-3-3-3-3-3-3-3-3-3-3-3-3-3-3-3-3-3-3-----------------------------|

G-------------------------------------------------------------------------|
D-------------------------------------------------------------------------|
A---5-5-5-5-5-5--8-8-8-8-8-8--0-0-0-0-0-0---------------------------------|
E-------------------------------------------------------------------------|

He will command our twin revival
The same insane sustain again
The two of us so close to our own hearts)
I silence and wrote
This awe of coincidence

G-------------------------------------------------------------------------|
D-------------------------------------------------------------------------|
A---5-5-5-5-5-5--8-8-8-8-8-8--0-0-0-0-0-0---------------------------------|
E-------------------------------------------(3) é a ultima nota da música)|


_______________________________________________________
Contribuição: Renato Pandur(renato.pandur@tvfronteira.com.br)
Composição de Dado Villa-Lobos / Marcelo Bonfá / Renato Russo
5.466 exibições

0 comentários

Ver todos os comentários

Conseguiu tocar?

0 Tocaram 0 Ainda não

Grave um vídeo tocando Feedback Song For A Dying Friend e nos envie!

00:00 / 00:00
outros vídeos desta música
repetir qualidade Automático
Outros vídeos desta música
00:00 / 00:00
Automático

Cifra Club Pro

Aproveite o Cifra Club com benefícios exclusivos e sem anúncios
Cifra Club Pro
Aproveite o Cifra Club com benefícios exclusivos e sem anúncios
OK