Cifra Club

Geração Coca-cola

Legião Urbana

Tab de baixo: Principal
exibições 64.209
Intro 2x:
G|------------------------------------------------------|
D|--------------------------------4-5-4-----------------|
A|-------------------------------5-----5-4-5-4-5-4------|
E|---7-7-7-0-4-5-6-7-7-7-0-4-5-6--------5---------5-7---|


Voz: qdo nascemos fomos programados...
G|------------------------------------------------------|
D|--------------------------------4-5-4-----------------|
A|-------------------------------5-----5-4-5-4-5-4------|
E|---7-7-7-0-4-5-6-7-7-7-0-4-5-6--------5---------5-7---|   


Refrão: somos os filhos da revolução...
G|------------------------------------------------------|    |-------------------------------------|   
D|------------------------------------------------------|    |-------------------------------------|
A|------------------------------------10-10-9-10-9------|    |-------------------------------------|
E|---7-7-0-5-5-0-3-3-3-0-2-3-5--7-7-10------------10----|    |---7-7-0-5-5-0-3-3-o-2--3--4--5-5----| 


Geração coca cola -            geração ...            geração coca cola
G|----------------------------------------------------------------------------------------|
D|-------------------------------------------------------------4-4-4-o--------------------|
A|----------5-0-2-2-2-0--------------5-0-2-2-2-0----------0-5----------------5-o-2-2-2-o--|
E|---5-5----------------------5-5------------------5-5-----------------5-5----------------|       


G|-----------------------------------------------------------------|  uoooooooooou
D|-----------------------------------------------------------------|
A|-----------------------------------------------------------------|
E|---(1-3-3-3)3x----0-2-3-(3-5-5-5)3x--0-3-5-(5-7-7-7)3x---5-7-5---|  (2x) 

G|-------------------------------------------|
D|-----(3-5-5-5)3x----0-4-5-(5-5-5-5)3x------|
A|-------------------------------------------|
E|-------------------------------------------|
Composição: Renato RussoColaboração e revisão:
  • fernando silva
  • Paulo Rocha
  • Adson Jesus

0 comentários

    mostrar mais comentários

    Conseguiu tocar?

    5tocaram1ainda não

    Grave um vídeo tocando Geração Coca-cola e mande pra gente!

    00:00 / 00:00
    outros vídeos desta música
    repetirqualidadeautomática
    Outro vídeos desta música
      00:00 / 00:00
      automática
      OK