Cifra Club

Aprenda

Há Tempos

Legião Urbana

Tab de baixo: Principal
Riff de Intro:
G|-----------------------------------------------------------------------------------------------|
D|-----7--7--7--7--7--7-----------------------------7--7--7--7--7--7--7--------------------------|
A|--5--------------------------------------------5-----------------------------------------------|
E|-----------------------5--5--5--5--5--5--5--5--------------------------3--3--3--3--3--3--3--3--|

G|------------------------------------------------------------|
D|------------------------------------------------------------|
A|--5-5-5-5-5-5-5-5-5-5-5-5-----------------------------------|
E|--------------------------5-5-5-5-5-5-5-5-5-5-5-5-----------|

G|------------------------------------------------------------|
D|------------------------------------------------------------|
A|------------------------------------------------------------|
E|-3-3-3-3-3-3-3-3-3-3-3-3-3--0-0-0-0-0-0-0-0-0-0-0-0-0-------|

Tem ao certo,a medida da maldade...a quem procura abrigo
G|-------------------------------------------------------------|
D|-------------------------------------------------------------|
A|-------------------------3-3-3-3-3-3-3-3-3-3-3-3-------------|
E|-1-1-1-1-1-1-1-1-1-1-1-1-------------------------------------|

Proteção:
G|-------------------------------------------------------------|
D|-------------------------------------------------------------|
A|-------------------------------------------------------------|
E|-5-5-5-5-5-5-5-5-5-5-5-5-5-5-5-5-5-5-------------------------|
Composição de Dado Villa-Lobos / Marcelo Bonfá / Renato Russo
Colaboração e revisão:
  • Adriano
11.796 exibições

0 comentários

Mostrar mais comentários
00:00 / 00:00
outros vídeos desta música
repetir qualidade Automático
Outros vídeos desta música
00:00 / 00:00
Automático

Cifra Club Pro

Aproveite o Cifra Club com benefícios exclusivos e sem anúncios
Cifra Club Pro
Aproveite o Cifra Club com benefícios exclusivos e sem anúncios
OK