Cifra Club

Mais Uma Vez

Legião Urbana

Cifra: Principal (violão e guitarra)
exibições 1.691.371
Tom: Gm (forma dos acordes no tom de F#m) Capotraste na 1ª casa
[Intro] A5(9)  A9  A4+(9) 
        A5(9)  A4+(9) 

[Violão 1]

   A5(9)  A9  A4+(9)
E|----------------------------------------------|
B|-6------3---5---------------------------------|
G|-5------5---5---------------------------------|
D|----------------------------------------------|
A|-1----------1---------------------------------|
E|----------------------------------------------|

   A5(9)    A4+(9)
E|----------------------------------------------|
B|-6---6----5--5p3------------------------------|
G|-5---5----5-------3---------------------------|
D|----------------------------------------------|
A|-1--------1-----------------------------------|
E|----------------------------------------------|

[Violão 2]

E|----------------------------------------------|
B|----------------------------------------------|
G|--3-3-3-------------------2-2-----------------|
D|--------5-5-5-3-3-3-5-5-5-----5-3-------------|
A|----------------------------------------------|
E|----------------------------------------------|

E|----------------------------------------------|
B|----------------------------------------------|
G|--2-2-2---------------------------------------|
D|--------5-5-5-3-3-3-3-3-3---------------------|
A|----------------------------------------------|
E|----------------------------------------------|

[Primeira Parte]

        A5(9)
Mas é claro que o sol
        B11
Vai voltar amanhã
          C#m7    F#m7(11) B4(7) E4 E
Mais uma vez, eu sei
       A5(9)
Escuridão já vi pior
           B11
De endoidecer gente sã
              C#m7   F#m7(11) B4(7) E4 E
Espera que o sol já vem

[Dedilhado da Primeira Parte]

    A5(9)           B11
E|-------------1--------1--------1--------------|
B|-----------3-------------5--------5-----------|
G|--------5-------------------5--------5--------|
D|-----3----------------------------------5-----|
A|--1---------------3---------------------------|
E|----------------------------------------------|

     C#m7            F#m7(11)   B4(7) E4    E
E|-------------1--------------------------------|
B|----------1-------------------1---------------|
G|-----2h3-----------3----------3-----3-----2---|
D|-------------------3----------3-----3-----3---|
A|-5----------------------------3-----3-----3---|
E|-------------------3----------------1-----1---|

[Segunda Parte]

A5(9)
     Tem gente que está do mesmo lado

Que você mas deveria estar do lado de lá
F#m7(11)
        Tem gente que machuca os outros
D5(6/9)                     Bm7(11) E
       tem gente que não sabe     amar
A5(9)
     Tem gente enganando a gente
F#m7(11)
        Veja nossa vida como está
D5(6/9)                         Bm7(11)   E
       Mas eu sei que um dia a gente   aprende
A5(9)                                   F#m7(11)
     Se você quiser alguém em quem confiar 

Confie em si mesmo
D5(6/9)               Bm7(11)  E
       Quem acredita sempre alcança

[Dedilhado da Segunda Parte]

   A5(9)
E|-----1-----1---------1-----1------------------|
B|---1-----1-----1---1-----1---1----------------|
G|-3-----3-----3---3-----3-------3--------------|(2x)
D|----------------------------------------------|
A|-1---------------1----------------------------|
E|----------------------------------------------|

   F#m7(11)
E|-----1-----1---------1-----1------------------|
B|---1-----1-----1---1-----1---1----------------|
G|-3-----3-----3---3-----3-------3--------------|
D|----------------------------------------------|
A|----------------------------------------------|
E|-3---------------3----------------------------|

   D5(6/9)         Bm7(11)     E
E|-----1-----1---------1---------1--------------|
B|---1-----1-----1---1-------------1------------|
G|-3-----3-----3---3-------3-2h3----------------|
D|-1--------------------------------------------|
A|-----------------3----------------------------|
E|-----------------------------1----------------|

[Solo] A5(9) 

   A5(9)
E|----------10-------8--------------------------|
B|----------------------------------------------|
G|----8/10------7/8-----------------------------|
D|----------------------------------------------|
A|-1--------------------------------------------|
E|----------------------------------------------|

   A5(9)
E|----------8--6/5--3--1---5/6------------------|
B|----------------------------------------------|
G|----7/8------7/5--3--2---6/7------------------|
D|----------------------------------------------|
A|-1--------------------------------------------|
E|----------------------------------------------|

[Primeira Parte com variação]

        A5(9)
Mas é claro que o sol
        B11
Vai voltar amanhã
          C#m7    F#m7(11)  B4(7)  E4  E
Mais uma vez, eu sei
       A5(9)        A5+
Escuridão já vi pior
           B11
De endoidecer gente sã
              C#m7   F#m7(11)  B4(7)  E4  E
Espera que o sol já vem

[Dedilhado da Primeira Parte]

   A5(9)            B11
E|-------------1--------1--------1--------------|
B|-----------3-------------5--------5-----------|
G|--------5-------------------5--------5--------|
D|-----3----------------------------------5-----|
A|--1----------------3--------------------------|
E|----------------------------------------------|

   C#m7              F#m7(11) B4(7) E4    E
E|-------------1--------------------------------|
B|----------1-----------------1-----------------|
G|-----2h3-----------3--------3-----3-----2-----|
D|-------------------3--------3-----3-----3-----|
A|-5--------------------------3-----3-----3-----|
E|-------------------3--------------1-----1-----|

    A5(9)       A5+    B11
E|----------1---2------1---------1--------------|
B|--------3-----3--------5----------5-----------|
G|------5-------3-----------5----------5--------|
D|----3---------4--------------5----------5-----|
A|--1-----------1------3------------------------|
E|----------------------------------------------|

   C#m7              F#m7(11) B4(7) E4    E
E|-------------1--------------------------------|
B|----------1-----------------1-----------------|
G|-----2h3-----------3--------3-----3-----2-----|
D|-------------------3--------3-----3-----3-----|
A|-5--------------------------3-----3-----3-----|
E|-------------------3--------------1-----1-----|

[Segunda Parte com variação]

A5(9)
     Nunca deixe que lhe digam que não vale a pena

Acreditar no sonho que se tem
F#m7(11)
        Ou que seus planos nunca vão dar certo
D5(6/9)                       Bm7(11)    E
       Ou que você nunca vai ser     alguém
A5(9)
     Tem gente que machuca os outros
F#m7(11)
        Tem gente que não sabe amar
D5(6/9)                         Bm7(11) E
       Mas eu sei que um dia a gente aprende
A5(9)                                   F#m7(11)
     Se você quiser alguém em quem confiar

Confie em si mesmo
  D5(9)        Bm7(11)  E
Quem acredita sempre alcança

( A5(9)  F#m7(11)  D5(6/9)  Bm7(11)  E )

   A      A5(9)         A         A5(9)    A
E|-----1----1----X--1--------1----1-----1--1----|
B|-----3----1----X--1--------3----1-----1--3----|
G|-----3----3----X--3--------3----3-----3--3----|
D|---3-----------X---------3--------------------|
A|-1------1------X------1-------1----1----------|
E|---------------X------------------------------|

   F#m7     F#m7(11)         F#m7 F#m7(11) F#m7
E|-----1----1----X--1--------1----1-----1--1----|
B|-----3----1----X--1--------3----1-----1--3----|
G|-----3----3----X--3--------3----3-----3--3----|
D|---3-----------X---------3--------------------|
A|---------------X------------------------------|
E|-3------3------X------3-------3-----3---------|

   D5(7M/9)  D5(6/9)     Bm7(11) E
E|------1----1----X--1-------1-------1----------|
B|------3----1----X--1-----1-----------1--------|
G|---3--3----3----X--3---3-----3-2h3------------|
D|-1------1-------X-----------------------------|
A|----------------X------3----------------------|
E|----------------X-----------------------------|

[Final]

A5(9)
     Quem acredita sempre alcança
F#m7(11)
        Quem acredita sempre alcança
D5(6/9)               Bm7(11)  E
       Quem acredita sempre alcança

A5(9)
     Quem acredita sempre alcança
F#m7(11)
        Quem acredita sempre alcança
D5(6/9)               Bm7(11)  E
       Quem acredita sempre alcança

( A5(9) )

[Dedilhado do Final]

   A5(9)
E|-------1-----1---------1-----1----------------|
B|-----1-----1-----1---1-----1---1--------------|
G|---3-----3-----3---3-----3-------3------------|(2x)
D|----------------------------------------------|
A|-1-------------1---1--------------------------|
E|----------------------------------------------|

   F#m7(11)
E|-------1-----1---------1-----1----------------|
B|-----1-----1-----1---1-----1---1--------------|
G|---3-----3-----3---3-----3-------3------------|
D|----------------------------------------------|
A|----------------------------------------------|
E|-3-------------3---3--------------------------|

   D5(6/9)            Bm7(11)  E
E|-------1-----1---------1---------1------------|
B|-----1-----1-----1---1-------------1----------|
G|---3-----3-----3---3-------3-2h3--------------|
D|-1--------------------------------------------|
A|-------------------3--------------------------|
E|-----------------------------1----------------|

[Solo]

   A5(9)
E|----------10-------8--------------------------|
B|----------------------------------------------|
G|----8/10------7/8-----------------------------|
D|----------------------------------------------|
A|-1--------------------------------------------|
E|----------------------------------------------|

   A5(9)
E|----------8--6/5--3--1---5/6------------------|
B|----------------------------------------------|
G|----7/8------7/5--3--2---6/7------------------|
D|----------------------------------------------|
A|-1--------------------------------------------|
E|----------------------------------------------|

   A5(9)
E|----------10-------8--------------------------|
B|----------------------------------------------|
G|----8/10------7/8-----------------------------|
D|----------------------------------------------|
A|-1--------------------------------------------|
E|----------------------------------------------|

   A5(9)
E|----------8--6/5--3--1---5/6------------------|
B|----------------------------------------------|
G|----7/8------7/5--3--2---6/7------------------|
D|----------------------------------------------|
A|-1--------------------------------------------|
E|----------------------------------------------|
Acordes para:

    0 comentários

    mostrar mais comentários

    Conseguiu tocar?

    98 tocaram 3 ainda não

    Grave um vídeo tocando Mais Uma Vez e mande pra gente!

    00:00 / 00:00
    outros vídeos desta música
    repetir qualidade Automático
    Outros vídeos desta música
    00:00 / 00:00
    Automático
    Capítulos
    • Início
    • Dicas iniciais
    • Tocando a música
    • Acordes da introdução
    • Tocando introdução
    • Ensinando dedilhado da intro
    • Ensinando solo da intro
    • Acordes da primeira parte
    • Tocando primeira parte
    • Ensinando primeiro ritmo
    • Ensinando segundo ritmo
    • Ensinando dedilahdo
    • Acordes da segunda parte
    • Tocando segunda parte
    • Ensinando dedilhado (violão 2)
    • Tocando solo
    • Ensinando solo
    • Acordes da repetição
    • Tocando trecho repetição
    • Ensinando dedilhado repetição (violão 2)
    • Tocando trecho instrumental
    • Ensinando ritmo (instrumental)
    • Ensinando ritmo da base (instrumental)
    • Tocando trecho final
    • Ensinando dedilhado final
    • Encerramento
    OK