Cifra Club

Aprenda

Mais Uma Vez

Legião Urbana

Tab de baixo: Principal
Quer fazer aulas de música com a gente? Responda essas perguntas
e nos ajude nesse projeto! →
Mas é claro que o sol
G|-----------------------------------------------------------------|
D|-----------------------------------------------------------------|
A|-1-1-1-1-1-1-1-1-1-1-1-1-1-1-1-1-3-3-3-3-3-3-3-3-3-3-3-3-3-3-3-3-|
E|-----------------------------------------------------------------| 
                                                                    (2x)
G|-----------------------------------------------------------------| 
D|-----------------------------------------------------------------|
A|-5-5-5-5-5-5-5-5---------3-3-3-3---------------------------------|
E|----------------3-3-3-3---------1-1-1-1-1-1-1-1------------------|

Tem gente que está do mesmo lado que voce
G|-----------------------------------------------------------------|
D|-----------------------------------------------------------------|
A|-1-1-1-1-1-1-1-1-1-1-1-1-1-1-1-1-1-1-1-1-1-1-1-1-1-1-1-1-1-1-1-1-|
E|-----------------------------------------------------------------|

G|-----------------------------------------------------------------|
D|---------------------------------1-1-1-1-1-1-1-1-----------------|
A|-------------------------------------------------3-3-3-3---------|
E|3-3-3-3-3-3-3-3-3-3-3-3-3-3-3-3--------------------------1-1-1-1-|

Tem gente enganando a gente
G|----------------------------------------------------------------|
D|----------------------------------------------------------------|
A|1-1-1-1-1-1-1-1-1-1-1-1-1-1-1-1---------------------------------|
E|--------------------------------3-3-3-3-3-3-3-3-3-3-3-3-3-3-3-3-|
                                                                     
G|----------------------------------------------------------------|
D|-1-1-1-1-1-1-1-1------------------------------------------------|
A|-----------------3-3-3-3----------------------------------------|
E|------------------------1-1-1-1---------------------------------|

G|----------------------------------------------------------------|
D|----------------------------------------------------------------|
A|1-1-1-1-1-1-1-1-1-1-1-1-1-1-1-1---------------------------------|
E|--------------------------------3-3-3-3-3-3-3-3-3-3-3-3-3-3-3-3-|

G|----------------------------------------------------------------|
D|-1-1-1-1-1-1-1-1------------------------------------------------|
A|-----------------3-3-3-3--------1-1-1-1-1-1-1-1-1-1-1-1-1-1-1-1-|
E|------------------------1-1-1-1---------------------------------|
Compositor não encontrado.
Colaboração e revisão:
  • Rodrigo Vidal
10 exibições

0 comentários

Ver todos os comentários
00:00 / 00:00
Outros vídeos desta música
Repetir Qualidade Automático
Outros vídeos desta música
00:00 / 00:00
Automático

Cifra Club Pro

Aproveite o Cifra Club com benefícios exclusivos e sem anúncios
Cifra Club Pro
Aproveite o Cifra Club com benefícios exclusivos e sem anúncios
OK