Cifra Club

Aprenda

Maurício

Legião Urbana

Tab de baixo: Principal
G|-----------------------------------------
D|----------3--3---------------------------
A|--5--5----------------3-5--8--8-------3--
E|---------------5--5-5----------5--5-5----

G|-------------------------------------
D|-------------------------------------
A|-------1--1-3--3-3-------------------
E|--3--3-------------0-1--1-1--1-1-1-0-

Até pensei...
G|----------------------------------------------
D|----------------------------------------------
A|-5--5-5-8--8-8-1--1-1-8--8-8-6--6-6-1--1-1-1-1
E|----------------------------------------------

G|--------------------------------------------------
D|--------------------------------------------------
A|-5--5-5-5--5-5------------------------------1-1-1-
E|---------------6--6-6-6--6-6--0-0--0-1--1-1-------

G|--------------------------------------------------
D|--------------------------------------------------
A|------------3--3-3------------1-1-1(2x)-----------
E|-3--3-3(2x)--------1--1-1(6x)---------------------

G|----------------------------------------------
D|----------------------------------------------
A|-----------------------1-1-1(2x)--------------
E|-3--3-3(2x)-1--1-1(4x)----------3--3-3(2x)----

G|-------------------------------------
D|-------------------------------------
A|-------1--1-3--3-3-------------------
E|--3--3-------------0-1--1-1--1-1-1-0-
Composição de Dado Villa-Lobos / Marcelo Bonfá / Renato Russo
Colaboração e revisão:
  • Cauê Coutinho
371 exibições

0 comentários

Mostrar mais comentários
00:00 / 00:00
outros vídeos desta música
repetir qualidade Automático
Outros vídeos desta música
00:00 / 00:00
Automático

Cifra Club Pro

Aproveite o Cifra Club com benefícios exclusivos e sem anúncios
Cifra Club Pro
Aproveite o Cifra Club com benefícios exclusivos e sem anúncios
OK