Cifra Club

Aprenda

Metal Contra As Nuvens

Legião Urbana

Tab de baixo: Principal
G|---------------|
D|---------------|
A|--------/7-----|
E|--0~-----------|


Intro Parte I:
G|-------------------------------|
D|-------------------------------| 
A|-------0-000-023-0335----------| 4x
E|--0-000---------------3-32-2---|


Intro Parte II:
E|----9---7-----------------------|
D|---9-9-7-7----------------------|
A|--7---5---3-0332----------------| 3x (na 3°vez execute a 2° tab)
E|-----------------5-53-32-0222---|


E|----9---7-----------------|
D|---9-9-7-7----------------|
A|--7---55--3-0332------5---|
E|----------------5-53-3----|


Reconheço meu pensar...
G|------------------------------------------------|
D|------------------------------------------------|
A|--3333332---------------------------------------|
E|---------555555-333333-222222-111111-333333-----|


Minha Terra..
G|------------------------------------------------|
D|------------------------------------------------|
A|-------5-555-----------------5-555--------------| 2x
E|--5-555-----3-333-0-000-5-555-----3-333-0-000---|


Mudança de tempo da musica.
G|----------------------------|
D|----------------------------| manter essa base até o solo.
A|----------------------------|
E|--53-5555553-53-5555553-----|


Solo Da Guitarra:  Obs. O Baixo acompanha a guitarra no solo
G|-----7------------5---77775----|
D|--757-765---567-57-765---------|
A|---------567-------------------|
E|-------------------------------|


G|-----7------------5--777775---|
D|--757-765---567-57-75---------|
A|---------567------------------|
E|------------------------------|


volta a base de novo até repetir o solo.
G|------------------------------|
D|------------------------------|
A|------------------------------|
E|--53-5555553-53-55555553------|


Solo Da Guitarra: Mesmo esquema do primeiro solo
G|-----7------------5---77775----|
D|--757-765---567-57-765---------|
A|---------567-------------------|
E|-------------------------------|


G|-----7------------5--777775---|
D|--757-765---567-57-75---------|
A|---------567------------------|
E|------------------------------|


Olha o sopro do dragão:
G|-----------------------------|
D|-----------------------------|
A|-----------------------------|4x
E|--53-5555553-----------------|


Intro Parte II:
E|----9---7-----------------------|
D|---9-9-7-7----------------------|
A|--7---5---3-0332----------------| 3x (na 3°vez execute a 2° tab)
E|-----------------5-53-32-0222---|


E|----9---7-----------------|
D|---9-9-7-7----------------|
A|--7---55--3-0332------5---|
E|----------------5-53-3----|


É A Verdade Que O Assombra....
G|-------------------------------------------------------------|
D|-------------------------------------------------------------| 
A|------555-------55----555----3333333-777777-------5555555----| 2x
E|--3333---3x33333--5555---5555--------------5555555-----------|


Baixo volta novamente na parte: Eu Sou Metal Raio, Relâmpago e Trovão 
G|------------------------------------------|
D|------------------------------------------| 
A|------------------------------------------| 2x
E|--33333333-55555555-3333332-00000000------|


Eu sou metal, me sabe o sopro do dragão.
G|------------------------------------------|
D|------------------------------------------|
A|------------------------------------------|
E|--33333333-55555555-11111111-33333333-----|


Não me entrego sem lutar...
G|------------------------------------------------|
D|------------------------------------------------|
A|--3333332---------------------------------------|
E|---------555555-333333-222222-111111-333333-----|


Intro 1:
G|-------------------------------|
D|-------------------------------| 
A|-------0-000-023-0335----------| 2x
E|--0-000---------------3-32-2---|



Tudo Passa, Tudo Passará
G|-------------------------------|
D|-------------------------------| 
A|-------0-000-023-0335----------| 3x
E|--0-000---------------3-32-2---|


Intro 1:
G|-------------------------------|
D|-------------------------------| 
A|-------0-000-023-0335----------| 5x
E|--0-000---------------3-32-2---|


Intro Parte II:
E|----9---7-----------------------|
D|---9-9-7-7----------------------|
A|--7---5---3-0332----------------| 4x (na 4°vez execute a 2° tab)
E|-----------------5-53-32-0222---|


E|----9---7-----------------|
D|---9-9-7-7----------------|
A|--7---55--3-0332------5---|
E|----------------5-53-3----|
Composição de Dado Villa-Lobos / Renato Russo
Colaboração e revisão:
  • Robson Júnior
4.102 exibições

0 comentários

Mostrar mais comentários
00:00 / 00:00
outros vídeos desta música
repetir qualidade Automático
Outros vídeos desta música
00:00 / 00:00
Automático

Cifra Club Pro

Aproveite o Cifra Club com benefícios exclusivos e sem anúncios
Cifra Club Pro
Aproveite o Cifra Club com benefícios exclusivos e sem anúncios
OK